Guitar Tabs for Subah Subah - Arijit Singh Tabs

(/) Slide Up  (\) Slide Down  (h) Hammer On  (p) Pull Off  (b) Bend (r) Release (v) Vibrato (x) Muted

Tabs for Song : 

Pehle hi lamhe mein hai beqarari
E|-----------------------------------
B|-----------------------------------
G|--12-12-10-12-12-10-12-12-10-12-12-
D|-----------------------------------
A|-----------------------------------
E|-----------------------------------

Si aage kya hoga nahi hai pata
E|--------------------------------------
B|--11-11-11----------------------------
G|-----------------------------10--8/10-
D|-----------13-13-13-13-13-13----------
A|--------------------------------------
E|--------------------------------------

Teri taraf ja raha hai Mujhe chhod
E|-----------------------------------
B|-----------------------------------
G|--12-12-10-12-12-10-12-12-10-12-12-
D|-----------------------------------
A|-----------------------------------
E|-----------------------------------

Ke jaane kyun aaj dil yeh mera
E|--------------------------------------
B|--11-11-11----------------------------
G|-----------------------------10--8/10-
D|-----------13-13-13-13-13-13----------
A|--------------------------------------
E|--------------------------------------

Shuruaatein nayi Hain yeh baatein nayi
E|--11-10----11----------11-10----11----11/13-
B|--------13----8---8/11-------13----11-------
G|--------------------------------------------
D|--------------------------------------------
A|--------------------------------------------
E|--------------------------------------------

Ab raatein gayi Aisa laga…
E|--11-10----11----------------------
B|--------13----8---8/11-11----------
G|--------------------------13-12-10-
D|-----------------------------------
A|-----------------------------------
E|-----------------------------------

Subah subah, tu jo mila
E|--11-13-15-11-11-13-15-11-10-
B|-----------------------------
G|-----------------------------
D|-----------------------------
A|-----------------------------
E|-----------------------------

Tu jo mila toh Mili hai saanson ko hawa
E|--11-13-11-11/16-15----15-13-11-11-11-13-11\10-11/13-
B|--------------------11-------------------------------
G|-----------------------------------------------------
D|-----------------------------------------------------
A|-----------------------------------------------------
E|-----------------------------------------------------

tabs and chords, guitar tabs, music contests, music covers, songsterr, reverbnation, renditions, tabulature, bollywood chords, ultimate guitar, yousician, guitar lessons, torrins, fender, gibson, acoustic guitar, electric guitar, youtube covers, gootar, guitar tuner, A-Z tabs, 911 tabs