Guitar Tabs for Saanson Ko - Arijit Singh Tabs

(/) Slide Up  (\) Slide Down  (h) Hammer On  (p) Pull Off  (b) Bend (r) Release (v) Vibrato

Tabs for Song : Saanson Ko

Saanson ko jeene ka ishaara mill gaya
E|--------------------------------------------------
B|--------10-10-13-11-10----------------------------
G|--10/12----------------12-12-10-10-12/14-12-10-9--
D|--------------------------------------------------
A|--------------------------------------------------
E|--------------------------------------------------

Dooba main tujhme to kinara mill gaya
E|--------------------------------------------------
B|--------10-10-13-11-10----------------------------
G|--10/12----------------12-12-10-10-12/14-12-10-9--
D|--------------------------------------------------
A|--------------------------------------------------
E|--------------------------------------------------

Saanson ko jeene ka ishara mil gaya
E|--------------------------------------------------
B|--------10-10-13-11-10----------------------------
G|--10/12----------------12-12-10-10-12/14-12-10-9--
D|--------------------------------------------------
A|--------------------------------------------------
E|--------------------------------------------------

Zindagi ka pata dobara mil gaya
E|--------------------------------------------------------
B|--10-11-10----10-10-13-11-10----------------------------
G|-----------12----------------12-12-10-10-12/14-12-10-9--
D|--------------------------------------------------------
A|--------------------------------------------------------
E|--------------------------------------------------------

Tu mila to Khuda ka sahaara mill gaya
E|--10-12-12/13-12-10-12-12----10-------------13-12-10-10-
B|--------------------------------13-11-13-11-------------
G|--------------------------------------------------------
D|--------------------------------------------------------
A|--------------------------------------------------------
E|--------------------------------------------------------

Tu mila to Khuda ka sahaara mill gaya
E|--10-12-12/13-12-10-12-12----10-------------13-12-10-10-
B|--------------------------------13-11-13-11-------------
G|--------------------------------------------------------
D|--------------------------------------------------------
A|--------------------------------------------------------
E|--------------------------------------------------------

Ghamzada ghamzada dil ye tha ghamzada
E|--------------12-10----------------------------
B|--10-11-11/15-------13-------10-11/15-13-11-10-
G|--------------------------12-------------------
D|-----------------------------------------------
A|-----------------------------------------------
E|-----------------------------------------------

Bin tere, bin tere, dil ye tha ghamzada
E|-----------------------------------------------------
B|--10-11-11/15-15/17\15/17-15-13----10-11/15-13-11-10-
G|--------------------------------12-------------------
D|-----------------------------------------------------
A|-----------------------------------------------------
E|-----------------------------------------------------
tabs and chords, guitar tabs, music contests, music covers, songsterr, reverbnation, renditions, tabulature, bollywood chords, ultimate guitar, yousician, guitar lessons, torrins, fender, gibson, acoustic guitar, electric guitar, youtube covers, gootar, guitar tuner, A-Z tabs, 911 tabs