Guitar Tabs for Stuff

ARPEGGIOS:

1) MAJOR


E|--------------9--12----
B|-----------10----------
G|--------9--------------
D|-----11----------------
A|--12-------------------
E|-----------------------

2) MINOR 

E|--------------8--12----
B|-----------10----------
G|--------9--------------
D|-----10----------------
A|--12-------------------
E|-----------------------

3) MAJOR 

E|-----------------9--12----
B|--------------10----------
G|-----------9--------------
D|--------11----------------
A|-----12-------------------
E|--9-----------------------

MINOR)

E|-----------------8--12----
B|--------------10----------
G|-----------9--------------
D|--------10----------------
A|-----12-------------------
E|--9-----------------------

ONE:


e|----------------------------------------------------------------------------------|
B|----------------------------------------------------------------------------------|
G|-----------------------------------------------------------------------------0----|
D|-----4-----0--(0)------4-----0--(0)---------4-----0--(0)------4-----0--(0)--------|
A|--2-----2--------------------------------2-----2----------------------------------|
E|--------------------3-----3--------------------------------3-----3----------------|

e|-------------------------------------------------------------------------|
B|-------------------------------------------------------------------------|
G|-------------------------------------------------------------------------|
D|-----4--------0--(0)------4-----0--(0)------4-----0--(0)-----------------|
A|--2-----2--------------0-----0--------------------------------2-----2----|
E|--------------------------------------------------------------------------

tabs and chords, guitar tabs, music transcription, music technology, deep learning, music information retrieval, transcribe into tabs & chords, chordify, music renditions, songsterr, reverbnation, tabulature, bollywood chords, ultimate guitar, yousician, guitar lessons, acoustic guitar, electric guitar, guitar tuner, 911 tabs