Guitar Tabs for Stuff

4 STRING ARPEGGIOS:

1) MAJOR

E|-----------10-13-------
B|--------11-------------
G|-----10----------------
D|--12-------------------
A|-----------------------
E|-----------------------


2) MINOR


E|-----------9--13-------
B|--------11-------------
G|-----10----------------
D|--11-------------------
A|-----------------------
E|-----------------------



HAMMERS & PULLS

1) HAMMER

E|-----------------
B|-----------------
G|-----------------
D|---------3h5-----
A|---3h5-----------
E|-----------------

2) PULL

E|--------------
B|--------------
G|--------------
D|---------5p3--
A|---5p3--------
E|--------------

3) BOTH

E|-----------------------
B|-----------------------
G|-----------------------
D|---------------3h-5p3--
A|---3h-5p3--------------
E|-----------------------

4) BOTH 

E|-----------------------
B|-----------------------
G|-----------------------
D|---------------0h-2p0--
A|---0h-2p0--------------
E|-----------------------


tabs and chords, guitar tabs, music transcription, music technology, deep learning, music information retrieval, transcribe into tabs & chords, chordify, music renditions, songsterr, reverbnation, tabulature, bollywood chords, ultimate guitar, yousician, guitar lessons, acoustic guitar, electric guitar, guitar tuner, 911 tabs