Guitar Tabs for Some Stuff

E|-----------------------0-----------0--------------------------------------------------------------
B|-----------0-----------------------------------0-----0-----0-----0-----0-----0-----0-----0-----0--
G|-----7-----------7-----------11----------------------4-----4-----4-----4-----4-----4-----4-----4--
D|-----------------------------------------12-------------------------------------------------------
A|--------------------------------------------------------------------------------------------------
E|--7-----7-----7-----7-----10----10----10----10----3-----3-----3-----3-----3-----3-----3-----3-----

E|-----------------------0-----------0--------------------------------------------------------------
B|-----------0-----------------------------10----3-----------0-----------0-----------0-----------0--
G|-----7-----------7-----------11----------------------4-----------4-----------4-----------4--------
D|--------------------------------------------------------------------------------------------------
A|--------------------------------------------------------------------------------------------------
E|--7-----7-----7-----7-----10----10----10----10----3-----3-----3-----3-----3-----3-----3-----3-----

E|-----------------------0-----------------0--------------------------------------------------------
B|-----------0-----------------------0-----------------------0-----------0-----------0-----------0--
G|-----7-----------7-----------6-----------------------4-----------4-----------4-----------4--------
D|-----------------------------------------------7--------------------------------------------------
A|--------------------------------------------------------------------------------------------------
E|--7-----7-----7-----7-----5-----5-----5-----5-----3-----3-----3-----3-----3-----3-----3-----3-----
                                           
E|--------------------------------------------------0-----12v------------
B|-----------0-----------0-----------0-----------0--0-----12v------------
G|-----0-----------------------2-----------2--------0-----12v------7v~~~~ 
D|-----------------2--------------------------------0--------------------
A|--------------------------------------------------0--------------------
E|--0-----0-----0-----0-----2-----2-----2-----2-----3--------------7v~~~~
                                                   (s)

tabs and chords, guitar tabs, music transcription, music technology, deep learning, music information retrieval, transcribe into tabs & chords, chordify, music renditions, songsterr, reverbnation, tabulature, bollywood chords, ultimate guitar, yousician, guitar lessons, acoustic guitar, electric guitar, guitar tuner, 911 tabs