Guitar Tabs for Stuff

old town road:


E|-----------------------------
B|-----------------------------
G|-----------------------------
D|-----------------------------
A|-----------------------------
E|--4--4--7--7--9--9--0--0-----

hammers intro:

1)

E|-----------------
B|-----------------
G|-----------------
D|------------2h3--
A|---2h3-----------
E|-----------------

2)

E|-----------------
B|-----------------
G|-----------------
D|---------0h2-----
A|---0h2-----------
E|-----------------

3)

E|-----------------
B|-----------------
G|-----------------
D|---------5h7-----
A|---5h7-----------
E|-----------------




tabs and chords, guitar tabs, music transcription, music technology, deep learning, music information retrieval, transcribe into tabs & chords, chordify, music renditions, songsterr, reverbnation, tabulature, bollywood chords, ultimate guitar, yousician, guitar lessons, acoustic guitar, electric guitar, guitar tuner, 911 tabs