Guitar Tabs for Ssp - Mellow Bass Tab

(/) Slide Up  (\) Slide Down (b) Bend 

Bass Tab - Mellow - Soft Surface Playground 

SONG STRUCTURE:
Intro
Verse 1
Chorus
Verse 2 (with small buildup)
Chorus
Bridge (with bigger buildup)
DOUBLE chorus
Outro 1
Outro 2
Outro 3


Play this for the chorus and intro, you more or less repeat this over and over again, play to the rhythm of the song
E|--------------------------------------------------------------------------------------------
B|--------------------------------------------------------------------------------------------
G|--------------------------------------------------------------------------------------------
D|--------------------------------------------------------------------------------------------
A|---3/7--7--7--7---7b8--7--7---7b8--7--7---7b8--7--7-----------------------------------------
E|------------------------------------------------------8\5--5--5--5--5---5/8--8---8\5--5--5--


This part for both Verses
E|--------------------------------------------------------------------------------
B|--------------------------------------------------------------------------------
G|--------------------------------------------------------------------------------
D|--------------------------------------------------------------------------------
A|---3/12-12-12-12\11-11\9--9---9/11-11----------12-12-12-12\11-11\9--9---9/11-11-
E|--------------------------------------------------------------------------------

For Second Verse build up into Chorus play this
E|--------------------------------------------------------------------------------t
B|--------------------------------------------------------------------------------
G|--------------------------------------------------------------------------------
D|--------------------------------------------------------------------------------
A|--12-12-12-12/11-11-11/9--9---9/7--7--------7--7--7--7--7--7--7--7--7--7--7--7--
E|--------------------------------------------------------------------------------

This part is the bridge, it's just the notes of the verse's drawn out longer, then build into chorus
E|-----------------------------------------------------------------------------------------
B|-----------------------------------------------------------------------------------------
G|-----------------------------------------------------------------------------------------
D|-----------------------------------------------------------------------------------------
A|---3/12\11\-9/11-------12\11\-9/11----------12\11\-9/11-------12\11\-9\7--7--7--7--7--7--
E|-----------------------------------------------------------------------------------------

OUTRO 1 - Its the same as the chorus, after taylah finishes singing her last line
Start with this
E|--------------------------------------------------------------------------------
B|--------------------------------------------------------------------------------
G|--------------------------------------------------------------------------------
D|--------------------------------------------------------------------------------
A|--7--7---7b8--7--7---7b8--7--7---7b8--7--7--------------------------------------
E|---------------------------------------------8/5--5--5--5---5/8--8--8---8\5--5--

OUTRO 2 - Play this in the breakdown, like where everything goes quieter, so mute each note after struck
E|-----------------------------------------------------------------------------------------------
B|-----------------------------------------------------------------------------------------------
G|-----------------------------------------------------------------------------------------------
D|-----------------------------------------------------------------------------------------------
A|--7--7--7--7--7--7--7--------------------------7--7--7--7--7--7--7--7--------------------------
E|-----------------------5--5--5--5--8--8--5--5--------------------------5--5--5--5--8--8--5--5--

OUTRO 3 - This is the Disco part, where everything comes back in and then the song ends
E|-----------------------------------------------------------------------------------
B|-----------------------------------------------------------------------------------
G|-----9-----9-----9-----9-----9-----------------------------------------------------
D|--------------------------------------7-----7-----7--------10----10-------7-----7--
A|--7-----7-----7-----7-----7--------------------------------------------------------
E|---------------------------------8/5-----5-----5------5/8-----8------8\5-----5-----


tabs and chords, guitar tabs, music transcription, music technology, deep learning, music information retrieval, transcribe into tabs & chords, chordify, music renditions, songsterr, reverbnation, tabulature, bollywood chords, ultimate guitar, yousician, guitar lessons, acoustic guitar, electric guitar, guitar tuner, 911 tabs