Bass Tabs for Ssp - Lucky Bass Tab

(/) Slide Up  (\) Slide Down  (h) Hammer On  (p) Pull Off  (b) Bend (r) Release (v) Vibrato (x) Muted

Tabs for Song :Lucky 

Intro, play this part TWICE
G|--------------------------------------------15-13-------------------
D|--------------------------------------------------------------------
A|--13-13-13-13-13-------------------13-13-13-------------------------
E|-----------------11-11-0--0--11-0-----------------11-11-0--0--11-0--

Verse 1 - Play this FOUR times
G|--------------------------------------------------------------------
D|--------------------------------------------------------------------
A|--9--9--9--7--9--11-11-11-11-11-9--9--9--7--9--11-9--11-13-13-13-11-
E|--------------------------------------------------------------------

Chorus (x2) - Same as intro
G|--------------------------------------------15-13-------------------
D|--------------------------------------------------------------------
A|--13-13-13-13-13-------------------13-13-13-------------------------
E|-----------------11-11-0--0--11-0-----------------11-11-0--0--11-0--

Verse 2 - Play this FOUR times (same as verse 1)
G|--------------------------------------------------------------------
D|--------------------------------------------------------------------
A|--9--9--9--7--9--11-11-11-11-11-9--9--9--7--9--11-9--11-13-13-13-11-
E|--------------------------------------------------------------------

Chorus (x4) - Double chorus
G|--------------------------------------------15-13-------------------
D|--------------------------------------------------------------------
A|--13-13-13-13-13-------------------13-13-13-------------------------
E|-----------------11-11-0--0--11-0-----------------11-11-0--0--11-0--

Bridge (x4)
G|--------------------------------------------------------------------
D|--------------------------------------------------------------------
A|--7--7--7--7--7--------7-----7--9--9--9--7--9--11-9--11-13-13-13-11-
E|-----------------0--0-----0-----------------------------------------

Chorus (x4) - Double chorus
G|--------------------------------------------15-13-------------------
D|--------------------------------------------------------------------
A|--13-13-13-13-13-------------------13-13-13-------------------------
E|-----------------11-11-0--0--11-0-----------------11-11-0--0--11-0--





Now supports capo and sound effects for vibrato/pull-off/hammer/bends/mutes etc !!! Checkout help section
tabs and chords, guitar tabs, music transcription, music technology, deep learning, music information retrieval, transcribe into tabs & chords, chordify, music renditions, songsterr, reverbnation, tabulature, bollywood chords, ultimate guitar, yousician, guitar lessons, acoustic guitar, electric guitar, guitar tuner, 911 tabs