Bass Tabs for Ssp - Smooth "won't Let Me Go" Bass Tab

(/) Slide Up  (\) Slide Down  (h) Hammer On  (p) Pull Off  (b) Bend (r) Release (v) Vibrato (x) Muted

Tabs for Song : 

Intro/verse 1 (Play as many times as nessessary)
G|--------8--------------6--------------8---------------6/8--6--
D|-----6--------2-----5--------------6--------2-----5-----------
A|--7--------4-----6--------------7--------4-----6--------------
E|--------------------------------------------------------------

Bridge thingo right after intro ("Won't let me go") x2
G|-----8-----11----4-----4-----------8-----11----4-----13-
D|--------------------------------------------------------
A|--6-----9-----2-----4-----------6-----9-----2-----11----
E|--------------------------------------------------------

Verse 2 - Repeat as many times nessassary - build on last note into chorus
G|--------8--------------6-----------8---------------6/8--6--
D|-----6--------2-----5-----------6--------2-----5-----------
A|--7--------4-----6-----------7--------4-----6--------------
E|-----------------------------------------------------------

Chorus 1 x2, kinda slide from note to note
G|-----------------------------------------------------------------13----13----
D|-----------------------------------------------------------------------------
A|--7--7--7--7--9--7--6--6--6--6--6--6--6--7--7--7--9--7--9--11-11----11----11-
E|-----------------------------------------------------------------------------
 
Verse 3 - It's the same latin rhythm from the intro except it fills in the gaps (play as many times as needed
          then build on the last note into the chorus)
G|--------8--------------------6-----------------8---------------------6/8--6--
D|-----6-----7-----2--------5-----5-----------6-----6-----2--------5-----------
A|--7-----------4-----4--6-----------6-----7-----------4-----4--6--------------
E|-----------------------------------------------------------------------------

Chorus 2 - This part repeats 4 times because it's a double chorus
G|-----------------------------------------------------------------13----13----
D|-----------------------------------------------------------------------------
A|--7--7--7--7--9--7--6--6--6--6--6--6--7--7--7--7--9--7--9--11-11----11----11-
E|-----------------------------------------------------------------------------

Chorus 2 - For the 4'th repeat of the chorus, play this
G|-----------------------------------------------------------13-11-13-11h13p11-------
D|-----------------------------------------------------------------------------13-11-
A|--7--7--7--7--9--7--6--6--6--6--6--6--7--7--7--9--7--9--11-------------------------
E|-----------------------------------------------------------------------------------

Outro - after the chorus x4
G|-----------------------------------------------------------------------------------------
D|-----------------------------------------------------------------------------------------
A|--11-11-11-11-9--9--9--7--7--7--7--9--9--9-----11-11-11-11-9--9--9--7--7--7--7--9--9--9--
E|-----------------------------------------------------------------------------------------

Outro - On the 4th repeat of this outro play that lick again
G|-----------------------------------------------------------------------13-11-13-11h13p11-------
D|-----------------------------------------------------------------------------------------13-11-
A|--11-11-11-11-9--9--9--7--7--7--7--9--9--9-----11-11-11-11-9--9--9--11-------------------------
E|-----------------------------------------------------------------------------------------------

Final Outro x4 - On the 4th Repeat, let the song close with a note on the low E
G|--------------------------------------------------------
D|--------------------------------------------------------
A|--------------------------------------------------------
E|--4--4--4--4--4--2--2--2--2--0--0--0--0--0--2--2--2--2--




tabs and chords, guitar tabs, music transcription, music technology, deep learning, music information retrieval, transcribe into tabs & chords, chordify, music renditions, songsterr, reverbnation, tabulature, bollywood chords, ultimate guitar, yousician, guitar lessons, acoustic guitar, electric guitar, guitar tuner, 911 tabs