Bass Tabs for Ssp - Dream Peak Bass Tab

(/) Slide Up  (\) Slide Down  (h) Hammer On  (p) Pull Off  

Bass tab - Dream Peak - Soft Surface Playground

Intro - This will also be played in the chorus
G|-----6---4h-6p4-----------------------------------------------8-----8-----
D|-----------------6--3--------8--------------------------------------------
A|--4-----------------------------------------------------6--6-----6------6/
E|-----------------------6--6-----6--8--6--4--4--4--2--4--------------------

Intro - continued, notice how the ending changes slightly
G|-----6---4h-6p4-----------------------------------------------------
D|-----------------6--3--------8--------------------------------------
A|--4-----------------------------------------------------------------
E|-----------------------6--6-----6--8--6--4--4--4--2--4--6--6--6--6--

Verse 1 (Repeat this FOUR times)
G|--------------------------8--------------------------------5-----5--
D|-----------8--------------------------------------------------------
A|--------------3--4--6--6-----6-----------------6--4--3--3-----3-----
E|--6--6--6-----------------------8--6--4--4--4-----------------------

Chorus
G|-----6---4h-6p4-----------------------------------------------8-----8-----
D|-----------------6--3--------8--------------------------------------------
A|--4-----------------------------------------------------6--6-----6------6\
E|-----------------------6--6-----6--8--6--4--4--4--2--4--------------------
Chorus 1- Continued, just add that ending part like in the intro
G|-----6---4h-6p4-----------------------------------------------------
D|-----------------6--3--------8--------------------------------------
A|--4-----------------------------------------------------------------
E|-----------------------6--6-----6--8--6--4--4--4--2--4--6--6--6--6--

Verse 2 - Literally the same as verse 1, so repeat it 4 times
G|--------------------------8--------------------------------5-----5--
D|-----------8--------------------------------------------------------
A|--------------3--4--6--6-----6-----------------6--4--3--3-----3-----
E|--6--6--6-----------------------8--6--4--4--4-----------------------

Chorus 2 - Same as chorus 1, but it's a double chorus, so play this part THREE times, and the "continued" part ONCE
G|-----6---4h-6p4-----------------------------------------------8-----8-----
D|-----------------6--3--------8--------------------------------------------
A|--4-----------------------------------------------------6--6-----6------6\
E|-----------------------6--6-----6--8--6--4--4--4--2--4--------------------
Chorus 2 - Continues, just add the little thing at the end again
G|-----6---4h-6p4-----------------------------------------------------
D|-----------------6--3--------8--------------------------------------
A|--4-----------------------------------------------------------------
E|-----------------------6--6-----6--8--6--4--4--4--2--4--6--6--6--6--

Bridge (Play this to the rythme that you can hear on the track)
G|--------------------------------------------------------------------
D|--4--4--4--4--4--4--4--4--4--4--4--4--4--3--3--3--3--3--3--3--3--3--
A|--------------------------------------------------------------------
E|--------------------------------------------------------------------
Bridge (Continued, it's just an octave down)
G|--------------------------------------------------------------------
D|--------------------------------------------------------------------
A|--------------------------------------------------------------------
E|--2--2--2--2--2--2--2--2--2--2--2--2--2--1--1--1--1--1--1--1--1--1--

Final Chorus (This time you just repeat this twice)
G|-----6---4h-6p4-----------------------------------------------8-----8-----
D|-----------------6--3--------8--------------------------------------------
A|--4-----------------------------------------------------6--6-----6------6\
E|-----------------------6--6-----6--8--6--4--4--4--2--4--------------------

Outro (Just follow the chords of the guitar, let each note ring) (BTW, these notes are the root notes of the chorus,
in case you just wanted to practise playing the root notes then filling in the cool lick stuff later)
G|-----------------------------------------------------------
D|-----------------------------------------------------------
A|--4-----------------------------------------------------6--
E|--------------------6-----------------4--------------------



tabs and chords, guitar tabs, music transcription, music technology, deep learning, music information retrieval, transcribe into tabs & chords, chordify, music renditions, songsterr, reverbnation, tabulature, bollywood chords, ultimate guitar, yousician, guitar lessons, acoustic guitar, electric guitar, guitar tuner, 911 tabs