Guitar Tabs for Soulshine

(/) Slide Up  (\) Slide Down  (h) Hammer On  (p) Pull Off  (b) Bend (r) Release (v) Vibrato (x) Muted

Tabs for Song : Soulshine

Song lyrics here
E|-----------------------------------------------------------------------------------------
B|-----------------------------------6-----------------------------------------------------
G|-----3--3------5b7---5b7------5b7------5b7--5--5--------3---5r5--5--3--3-----------3-----
D|--5--------5---------------------------------------4/5--------------------5--------------
A|-----------------------------------------------------------------------------4--5--------
E|-----------------------------------------------------------------------------------------

Song lyrics here
E|--------------------------------13----------------------------13b16-13-11-------
B|--------11-13b15-13b15----13b15----13b15-13-13-------11-11----------------14-11-
G|---9/12-----------------------------------------9/12-------12-------------------
D|--------------------------------------------------------------------------------
A|--------------------------------------------------------------------------------
E|--------------------------------------------------------------------------------

Paste any tab in acousterr's tab maker and we'll play it !!!
Now supports capo and sound effects for vibrato/pull-off/hammer/bends/mutes etc !!! Checkout help section
tabs and chords, guitar tabs, music transcription, music technology, deep learning, music information retrieval, transcribe into tabs & chords, chordify, music renditions, songsterr, reverbnation, tabulature, bollywood chords, ultimate guitar, yousician, guitar lessons, acoustic guitar, electric guitar, guitar tuner, 911 tabs