Guitar Tabs for Sophie

(/) Slide Up  (\) Slide Down  (h) Hammer On  (p) Pull Off  (b) Bend (r) Release (v) Vibrato (x) Muted

Tabs for Song : 

Verse:

E|-----------------------------------------------------------------
B|-----------------------------------------------------------------
G|-----------------------------------------------------------------
D|--------------------------------------------------------7-----7--
A|-----12----10----8-----10-------------12----10----8--8-----8-----
E|--10----8-----6-----8-----8--------10----8-----6-----------------

x2 Pre Chorus:

E|--------------------------------
B|--------------------------------
G|--------------------------------
D|--------------------------------
A|-----12-------10-------8-----10-
E|--10-------8--------6-----8-----

Chorus:

E|--10h13p10----------------10h13p10----------------10h13p10----------------10h13p10-------------
B|-----------13-10-13-10-------------13-13/15-13-------------13-10-13-10-------------13-10-------
G|-----------------------------------------------------------------------------------------12-10-
D|-----------------------------------------------------------------------------------------------
A|-----------------------------------------------------------------------------------------------
E|-----------------------------------------------------------------------------------------------



tabs and chords, guitar tabs, music contests, music covers, songsterr, reverbnation, renditions, tabulature, bollywood chords, ultimate guitar, yousician, guitar lessons, torrins, fender, gibson, acoustic guitar, electric guitar, youtube covers, gootar, guitar tuner, A-Z tabs, 911 tabs