Guitar Tabs for Soch na sake

Tabs for Song : Soch na sake

intro tab

E|--------------------------------
B|--------------------------------
G|--1--2--1-----------------------
D|-----------2--2--0-----0--2-----
A|--------------------4-----------
E|--------------------------------

E|--------------------------------
B|--------------------------------
G|--1--2--1-----------------------
D|-----------2--2--0-----0--2-----
A|--------------------4-----------
E|--------------------------------

tenu itna mein pyaar kara
E|--------------------------------
B|--------------------0-----------
G|--1--1--2--2--2--1-----2--2-----
D|--------------------------------
A|--------------------------------
E|--------------------------------

ek pal wich sau baar kara
E|-----------------------------------
B|-----------------------------------
G|-----------------------------------
D|--2--4--2--4--2--0-----2--2--2-----
A|--------------------4--------------
E|-----------------------------------

tu jaave je menu chhad ke
E|-----------------------------------
B|-----------------------0-----------
G|--1--1--2--2--2--2--1-----2--2-----
D|-----------------------------------
A|-----------------------------------
E|-----------------------------------

maut da intzaar kara
E|-----------------------------------
B|-----------------------------------
G|-----------------------------------
D|--2--4--2--4--2--0-----2--2--2-----
A|--------------------4--------------
E|-----------------------------------

ki tere liye duniyan chodd di hai
E|-----------------------------------
B|--------2--0--2--------------------
G|-----------------2--2--2--1--2-----
D|--2--2-----------------------------
A|-----------------------------------
E|-----------------------------------

tujhpe hi saans aake ruke
E|--------------------------------------
B|--------2--0--2-----------0-----------
G|-----------------2--2--2-----2--2-----
D|--2--2--------------------------------
A|--------------------------------------
E|--------------------------------------

mein tujhko kitna chahta hu
E|--------------------------------------
B|--------------------------------------
G|--2--1--2--1--2-----------------------
D|-----------------4--4--4--4--4--0-----
A|--------------------------------------
E|--------------------------------------

ye tu kabhi soch na sake
E|--------------------------------------
B|--------------------------------------
G|-----------2--1-----------------------
D|--0--2--4--------4--2---0h2--0--------
A|--------------------------------4-----
E|--------------------------------------

kuch bhi nahi hai ye jahaan
E|-----------------------------------
B|--2--2--3--2--0-----------0--2-----
G|-----------------2--1--2-----------
D|-----------------------------------
A|-----------------------------------
E|-----------------------------------

tu hai toh hai isme zindgi 
E|--------------------------------
B|--2--2--3--2--0-----------0--0---
G|-----------------2--1--2--------
D|--------------------------------
A|--------------------------------
E|--------------------------------

ab mujhko jana hai kahan
E|-----------------------------------
B|--2--2--3--2--0-----------0--2-----
G|-----------------2--1--2-----------
D|-----------------------------------
A|-----------------------------------
E|-----------------------------------

ke tu hi safar hai aakhiri
E|-----------------------------------
B|--2--2--3--2--0-----------0--0-----
G|-----------------2--1--2-----------
D|-----------------------------------
A|-----------------------------------
E|-----------------------------------

ki tere bina jeena mumkeen nahi
E|-----------------------------------
B|--------2--0--2--------------------
G|-----------------2--2--2--1--2-----
D|--2--2-----------------------------
A|-----------------------------------
E|-----------------------------------

na dena kabhi mujhko tu faasley
E|--------------------------------------
B|--------2--0--2-----------0-----------
G|-----------------2--2--2-----2--2-----
D|--2--2--------------------------------
A|--------------------------------------
E|--------------------------------------

mein tujhko kitna chahta hu 
E|--------------------------------------
B|--------------------------------------
G|--2--1--2--1--2-----------------------
D|-----------------4--4--4--4--4--0-----
A|--------------------------------------
E|--------------------------------------

ye tu kabhi soch na sake
E|--------------------------------------
B|--------------------------------------
G|-----------2--1-----------------------
D|--0--2--4--------4--2---0h2--0--------
A|--------------------------------4-----
E|--------------------------------------

tabs and chords, guitar tabs, music transcription, music technology, deep learning, music information retrieval, transcribe into tabs & chords, chordify, music renditions, songsterr, reverbnation, tabulature, bollywood chords, ultimate guitar, yousician, guitar lessons, acoustic guitar, electric guitar, guitar tuner, 911 tabs