Guitar Tabs for Säkkijärven Polkka

intro
E|--8-----8-----7-----7-----7-----7-----8-----8-----8-----8-----7-----7-----7-----7--8--
B|--10----10----9-----9-----9-----9-----10----10----10----10----9-----9-----9-----9--10-
G|--------------------------------------------------------------------------------------
D|--------------------------------------------------------------------------------------
A|--------------------------------------------------------------------------------------
E|--------------------------------------------------------------------------------------
-
E|-----------------------------------------------------------------------------------------------------
B|--------10----------------------------------------------------10-------------------------------------
G|--9--------9--7-----------------9-----7--------------------9-----9--7-----------------9--7-----------
D|-----------------10-10-9--9--------------10-9--9--7--7-----------------10-10-9--9-----------10-9--7--
A|-----------------------------------------------------------------------------------------------------
E|-----------------------------------------------------------------------------------------------------

E|--------------------------------7--7--7--8--7-----------------------------------------------------------
B|-----10-10-10-12-10-9--9-----------------------10-10-------10-10-10-12-10-9--9--------------9--10----10-
G|--9--------------------------9--------------------------9--------------------------9--9--11-------------
D|--------------------------------------------------------------------------------------------------------
A|--------------------------------------------------------------------------------------------------------
E|--------------------------------------------------------------------------------------------------------
solo
E|--------------------------------9--10-9--10-12-13-12-10-13-12----------12-10-8--7--8--7-----------
B|--------9--10-9--10-12-13-12-13----------------------------------9--12-------------------10-9--10-
G|--9--11-------------------------------------------------------9-----------------------------------
D|--------------------------------------------------------------------------------------------------
A|--------------------------------------------------------------------------------------------------
E|--------------------------------------------------------------------------------------------------

E|--------------------------------9--10-9--10-12-13-12-10-13-12----------12-10-8--7-----------
B|--------9--10-9--10-12-13-12-13----------------------------------9--12-------------10----10-
G|--9--11-------------------------------------------------------9-----------------------------
D|--------------------------------------------------------------------------------------------
A|--------------------------------------------------------------------------------------------
E|--------------------------------------------------------------------------------------------
-
E|--------------------------------------------------------------------------------------------------------------------------
B|--10-10-------------10-10-------------10-10-11-10-8--8--------8--8--------------8--8--------------8--8--10-8--------------
G|--------10-7--7--10-------10-7--7--10-------------------10-9--------10-9--9--10-------10-9--9--10-------------10-10-9--7--
D|--------------------------------------------------------------------------------------------------------------------------
A|--------------------------------------------------------------------------------------------------------------------------
E|--------------------------------------------------------------------------------------------------------------------------

E|-----------------------------------------8--10-8-----------------------------------------------------------------
B|--10-10-------------10-10-------------10----------11-11-10-8-----11----10-8--------------------------------------
G|--------10-7--7--10-------10-7--7--10----------------------------------------10-10-9--7-----9--9--7--6--9--7--7--
D|-----------------------------------------------------------------------------------------------------------------
A|-----------------------------------------------------------------------------------------------------------------
E|-----------------------------------------------------------------------------------------------------------------
tabs and chords, guitar tabs, music transcription, music technology, deep learning, music information retrieval, transcribe into tabs & chords, chordify, music renditions, songsterr, reverbnation, tabulature, bollywood chords, ultimate guitar, yousician, guitar lessons, acoustic guitar, electric guitar, guitar tuner, 911 tabs