Guitar Tabs for Shrek - Theme Intro

[Intro]
e|-----------------------------------
B|--0--3---3/5--5--3--0--------------
G|-----------------------------------
D|-----------------------------------
A|-----------------------------------
E|-----------------------------------

e|--------------------------------------
B|--0--3---3/5--87----3--0--------------
G|--------------------------------------
D|--------------------------------------
A|--------------------------------------
E|--------------------------------------

e|--------------------------------------
B|--0--3---3/5--------------0--3--------
G|--------------0--0--2--0--------------
D|--------------------------------------
A|--------------------------------------
E|--------------------------------------

e|-----------------------------------
B|--0--3---3/5--5--3--0--------------
G|-----------------------------------
D|-----------------------------------
A|-----------------------------------
E|-----------------------------------

e|--------------------------------------
B|--0--3---3/5--8--10----13----12-------
G|--------------------------------------
D|--------------------------------------
A|--------------------------------------
E|--------------------------------------

e|--------------------------------------
B|--12----10----8--7--5--3--0--3--5-----
G|--------------------------------------
D|--------------------------------------
A|--------------------------------------
E|--------------------------------------

tabs and chords, guitar tabs, music transcription, music technology, deep learning, music information retrieval, transcribe into tabs & chords, chordify, music renditions, songsterr, reverbnation, tabulature, bollywood chords, ultimate guitar, yousician, guitar lessons, acoustic guitar, electric guitar, guitar tuner, 911 tabs