Guitar Tabs for Crazy Train - Ozzy Osbourne Intro

(/) Slide Up  (\) Slide Down  (h) Hammer On  (p) Pull Off  (b) Bend (r) Release (v) Vibrato (x) Muted

Tabs for Song : Crazy Train Intro
E|--------------------------------------------------
B|--------------------------------------------------
G|--------------------------------------------------
D|--------------------------------------------------
A|--------4-----5-----4-----2-----------2-----------
E|--2--2-----2-----2-----2-----5--4--5-----5--4--0--

E|--------------------------------------------------
B|--------------------------------------------------
G|--------------------------------------------------
D|--------------------------------------------------
A|--------4-----5-----4-----2-----------2-----------
E|--2--2-----2-----2-----2-----5--4--5-----5--4--0--

E|--------------------------------------------------
B|--------------------------------------------------
G|--------------------------------------------------
D|--------------------------------------------------
A|--------4-----5-----4-----2-----------2-----------
E|--2--2-----2-----2-----2-----5--4--5-----5--4--0--

E|--------------------------------------------------
B|--------------------------------------------------
G|--------------------------------7--------9--------
D|--------------------------------7--------9--------
A|-----------4-----5-----4--2-----5--------7--------
E|-----2--2-----2-----2-----------------------------
tabs and chords, guitar tabs, music transcription, music technology, deep learning, music information retrieval, transcribe into tabs & chords, chordify, music renditions, songsterr, reverbnation, tabulature, bollywood chords, ultimate guitar, yousician, guitar lessons, acoustic guitar, electric guitar, guitar tuner, 911 tabs