Guitar Tabs for Maroon 5 Girls Like You

(/) Slide Up  (\) Slide Down  (h) Hammer On  (p) Pull Off  (b) Bend (r) Release (v) Vibrato (x) Muted

Tabs & Chords

Check Track 2 for Chord Positions 

    G                                                  C           G                          
E|--------3--3--3--3--3--1--0--------3--3--3--3--3--5--0--------3--3--3--3--3-----1--0-----0--
B|--1--------------------------1--1-----------------------1-----------------------------3-----
G|--------------------------------------------------------------------------------------------
D|--------------------------------------------------------------------------------------------
A|--------------------------------------------------------------------------------------------
E|--------------------------------------------------------------------------------------------

             C                          G                       F        C                 G  
E|--------------------0-----------------0--------------------------------3-----------------3--
B|-----3--3--1--1--1--------3--1--1--1--------3--1--3--3--------1--1--1--------1-----1--1-----
G|--------------------------------------------------------2-----------------------------------
D|--------------------------------------------------------------------------------------------
A|--------------------------------------------------------------------------------------------
E|--------------------------------------------------------------------------------------------

                      F        C                 G                    F           C           
E|-----------------------------0-----------------0--------------------------------------------
B|-----1-----3--3-----1--1--3--------------------------------3--3-----1--1--3--3-----------1--
G|-----------------------------------0-----0--0--------0--0-----------------------0--0--------
D|--------------------------------------------------------------------------------------------
A|--------------------------------------------------------------------------------------------
E|--------------------------------------------------------------------------------------------

       G                          Am    F  C                       G                       Am 
E|-----------------------------------------------------0--------------------------------------
B|--3--3-----------------3--3-----1-----1--1-----3-----------1--1--1--0-----1-----3-----------
G|-----------0-----0-----------------------------------------------------------------2--2--2--
D|--------------------------------------------------------------------------------------------
A|--------------------------------------------------------------------------------------------
E|--------------------------------------------------------------------------------------------

                      F                          C                       G                    
E|-----------------------------------------------------------0--------------------------------
B|--------1-----3-----------------1-----3--1--1--1-----3-----------1--1--1--0-----1-----3-----
G|--2--------------2--2--2--2--------------------------------------------------------------2--
D|--------------------------------------------------------------------------------------------
A|--0-----------------------------------------------------------------------------------------
E|--------------------------------------------------------------------------------------------

       Am                      F                             C     G              Am          
E|--------------------------------------------------------------------------------------------
B|--------------1-----3-----------------1-----3-----1--1-----1--1--1--0-----0--0--------1--1--
G|--2--2--2--------------2--2--2--2-----------------------------------------------2-----------
D|--------------------------------------------------------------------------------------------
A|--------------------------------------------------------------------------------0-----------
E|--------------------------------------------------------------------------------------------

    F                             C     G           Am          F                          C  
E|-----------------0-----------------------------------------------------------0-----------3--
B|--1--1-----3--------1-----1-----1--1--0-----0--0--------1--1--1--1-----3--------1--1--1-----
G|--------------------------------------------------2-----------------------------------------
D|--------------------------------------------------------------------------------------------
A|--------------------------------------------------0-----------------------------------------
E|--------------------------------------------------------------------------------------------

                   G                    F           C                    G                    F  
E|-----5-----------3-----5-----0--0-----------------0--------------------0-----------------------
B|-----------1--1-----------------------1--1--1--3--------1-----1--1--3--------1-----3--3-----1--
G|-----------------------------------------------------------------------------------------------
D|-----------------------------------------------------------------------0-----------------------
A|-----------------------------------------------------------------------------------------------
E|-----------------------------------------------------------------------------------------------

          C              G                          F              C              G           
E|--------------------------------0-----------------------------------------------------------
B|--1--1--3-----1--1--1--1--3-----------1--3--3-----1--1--3--3--------------1--3--3-----------
G|-----------------------------------------------------------------0--0-----------------0--0--
D|--------------------------------------------------------------------------------------------
A|--------------------------------------------------------------------------------------------
E|--------------------------------------------------------------------------------------------

                Am    F  C                    G                    Am                      F  
E|-----------------------------------0--------------------------------------------------------
B|-----3--3-----1-----1--1-----3--------1--1--1--0-----1-----3--------------1-----3-----------
G|--------------------------------------------------------------2--2--2--------------2--2--2--
D|--------------------------------------------------------------------------------------------
A|--------------------------------------------------------------------------------------------
E|--------------------------------------------------------------------------------------------

                            C                    G                       Am                F  
E|--------------------------------------0-----------------------------------------------------
B|--------1-----3--1--1--1--1-----3--------1--1--1--0-----1-----3-----------------1-----3-----
G|--2--------------------------------------------------------------2--2--2--2--------------2--
D|--------------------------------------------------------------------------------------------
A|--------------------------------------------------------------------------------------------
E|--------------------------------------------------------------------------------------------

                                  C        G           Am          F                       
E|--------------------------------------------------------------------------------0--------
B|--------------1-----3--1--1-----1-----1--0-----0--0--------1--1--1--1-----3--------1--1--
G|--2--2--2--------------------------------------------2-----------------------------------
D|-----------------------------------------------------------------------------------------
A|-----------------------------------------------------------------------------------------
E|-----------------------------------------------------------------------------------------

Guitar Tabs for Maroon 5 Girls Like You






    G                                                  C           G                          
E|--3--------------------------------------------------0-----------3--------------------------
B|--3--------------------------------------------------1-----------3--------------------------
G|--4--------------------------------------------------0-----------4--------------------------
D|--5--------------------------------------------------2-----------5--------------------------
A|--5--------------------------------------------------3-----------5--------------------------
E|--3--------------------------------------------------------------3--------------------------

             C                          G                       F        C                 G  
E|-----------0--------------------------3-----------------------1--------0-----------------3--
B|-----------1--------------------------3-----------------------1--------1-----------------3--
G|-----------0--------------------------4-----------------------2--------0-----------------4--
D|-----------2--------------------------5-----------------------3--------2-----------------5--
A|-----------3--------------------------5-----------------------3--------3-----------------5--
E|--------------------------------------3-----------------------1--------------------------3--

                      F        C                 G                    F           C           
E|--------------------1--------0-----------------3--------------------1-----------0-----------
B|--------------------1--------1-----------------3--------------------1-----------1-----------
G|--------------------2--------0-----------------4--------------------2-----------0-----------
D|--------------------3--------2-----------------5--------------------3-----------2-----------
A|--------------------3--------3-----------------5--------------------3-----------3-----------
E|--------------------1--------------------------3--------------------1-----------------------

       G                          Am    F  C                       G                       Am 
E|-----3--------------------------0-----1--0-----------------------3-----------------------0--
B|-----3--------------------------1-----1--1-----------------------3-----------------------1--
G|-----4--------------------------2-----2--0-----------------------4-----------------------2--
D|-----5--------------------------2-----3--2-----------------------5-----------------------2--
A|-----5--------------------------0-----3--3-----------------------5-----------------------0--
E|-----3--------------------------------1--------------------------3--------------------------

                      F                          C                       G                    
E|--------------------1--------------------------0-----------------------3--------------------
B|--------------------1--------------------------1-----------------------3--------------------
G|--------------------2--------------------------0-----------------------4--------------------
D|--------------------3--------------------------2-----------------------5--------------------
A|--------------------3--------------------------3-----------------------5--------------------
E|--------------------1--------------------------------------------------3--------------------

       Am                      F                             C     G              Am          
E|-----0-----------------------1-----------------------------0-----3--------------0-----------
B|-----1-----------------------1-----------------------------1-----3--------------1-----------
G|-----2-----------------------2-----------------------------0-----4--------------2-----------
D|-----2-----------------------3-----------------------------2-----5--------------2-----------
A|-----0-----------------------3-----------------------------3-----5--------------0-----------
E|-----------------------------1-----------------------------------3--------------------------

    F                             C     G           Am          F                          C  
E|--1-----------------------------0-----3-----------0-----------1--------------------------0--
B|--1-----------------------------1-----3-----------1-----------1--------------------------1--
G|--2-----------------------------0-----4-----------2-----------2--------------------------0--
D|--3-----------------------------2-----5-----------2-----------3--------------------------2--
A|--3-----------------------------3-----5-----------0-----------3--------------------------3--
E|--1-----------------------------------3-----------------------1-----------------------------

                   G                    F           C                    G                    F  
E|-----------------3--------------------1-----------0--------------------3--------------------1--
B|-----------------3--------------------1-----------1--------------------3--------------------1--
G|-----------------4--------------------2-----------0--------------------4--------------------2--
D|-----------------5--------------------3-----------2--------------------5--------------------3--
A|-----------------5--------------------3-----------3--------------------5--------------------3--
E|-----------------3--------------------1--------------------------------3--------------------1--

          C              G                          F              C              G           
E|--------0--------------3--------------------------1--------------0--------------3-----------
B|--------1--------------3--------------------------1--------------1--------------3-----------
G|--------0--------------4--------------------------2--------------0--------------4-----------
D|--------2--------------5--------------------------3--------------2--------------5-----------
A|--------3--------------5--------------------------3--------------3--------------5-----------
E|-----------------------3--------------------------1-----------------------------3-----------

                Am    F  C                    G                    Am                      F  
E|--------------0-----1--0--------------------3--------------------0-----------------------1--
B|--------------1-----1--1--------------------3--------------------1-----------------------1--
G|--------------2-----2--0--------------------4--------------------2-----------------------2--
D|--------------2-----3--2--------------------5--------------------2-----------------------3--
A|--------------0-----3--3--------------------5--------------------0-----------------------3--
E|--------------------1-----------------------3--------------------------------------------1--

                            C                    G                       Am                F  
E|--------------------------0--------------------3-----------------------0-----------------1--
B|--------------------------1--------------------3-----------------------1-----------------1--
G|--------------------------0--------------------4-----------------------2-----------------2--
D|--------------------------2--------------------5-----------------------2-----------------3--
A|--------------------------3--------------------5-----------------------0-----------------3--
E|-----------------------------------------------3-----------------------------------------1--

                                  C        G           Am          F                       
E|--------------------------------0--------3-----------0-----------1-----------------------
B|--------------------------------1--------3-----------1-----------1-----------------------
G|--------------------------------0--------4-----------2-----------2-----------------------
D|--------------------------------2--------5-----------2-----------3-----------------------
A|--------------------------------3--------5-----------0-----------3-----------------------
E|-----------------------------------------3-----------------------1-----------------------

tabs and chords, guitar tabs, music transcription, music technology, deep learning, music information retrieval, transcribe into tabs & chords, chordify, music renditions, songsterr, reverbnation, tabulature, bollywood chords, ultimate guitar, yousician, guitar lessons, acoustic guitar, electric guitar, guitar tuner, 911 tabs