Guitar Tabs for Marshmello - Alone

(/) Slide Up  (\) Slide Down  (h) Hammer On  (p) Pull Off  (b) Bend (r) Release (v) Vibrato (x) Muted

Tabs & Chords for Marshmellow - Alone

Check Track 2 for Chord Positions 

    G                       A                       Bm                      D                 
E|-----------------------------2-----2-----2--------------------------------------------------
B|-----3-----3-----3-----------------------------2--0--3--0--3--0--3--0--2--3-----3-----3-----
G|--0-----0-----0-----0--2--2-----2-----2-----2--------------------------------2-----2-----2--
D|--------------------------------------------------------------------------------------------
A|--------------------------------------------------------------------------------------------
E|--------------------------------------------------------------------------------------------

          G                    D        F#m   G                    D                    G        
E|--------2-----------5-----0--2--0-----3-----2-----3-----2-----0--2--------0-----2-----------5--
B|--3-----------3-----------------------------------------------------3-----------------3--------
G|-----------------------------------------------------------------------------------------------
D|-----4-----------------------------------------------------------------------------------------
A|-----------------------------------------------------------------------------------------------
E|-----------------------------------------------------------------------------------------------

          D                    G                 D           G                          A     
E|-----0--2--0-----3-----2-----3-----2-----0--2--------0--------2--2--2-----2-----3--0--2-----
B|-----------------------------------------------3-----------3-----------3-----3-----------3--
G|--------------------------------------------------------------------------------------------
D|--------------------------------------------------------------------------------------------
A|--------------------------------------------------------------------------------------------
E|--------------------------------------------------------------------------------------------

                Bm                            D                 G                          A  
E|-----0--2--0-----------3-----2--------3--------2--3--5--3--------2--2--2-----2-----3--0--2--
B|--------------3-----3-----------3-----------3-----------------3-----------3-----3-----------
G|--------------------------------------------------------------------------------------------
D|--------------------------------------------------------------------------------------------
A|--------------------------------------------------------------------------------------------
E|--------------------------------------------------------------------------------------------

                   Bm                            D                 G                    F#mG  
E|--------0--2--0-----------3-----2--------3--------2--3--5--3-----------5-----0--0-----2--3--
B|--3--------------3-----3-----------3-----------3-----------------3--------------------------
G|--------------------------------------------------------------------------------------------
D|--------------------------------------------------------------------------------------------
A|--------------------------------------------------------------------------------------------
E|--------------------------------------------------------------------------------------------

                   D     G                    Bm                      D                    G  
E|--3--2-----0-----------------5-----0--0-----2-----3--2--------2-----3-----2-----0-----------
B|-----------------3-----3-----------------------------------3-----------------------3-----3--
G|--------------------------------------------------------------------------------------------
D|--------------------------------------------------------------------------------------------
A|--------------------------------------------------------------------------------------------
E|--------------------------------------------------------------------------------------------

                      F#mG                 D     G                    F#m   G           D        
E|-----5-----0--0-----2--3--3--2-----0-----------------5-----0--0-----2-----3--2--------2-----3--
B|-----------------------------------------3-----3-----------------------------------3-----------
G|-----------------------------------------------------------------------------------------------
D|-----------------------------------------------------------------------------------------------
A|-----------------------------------------------------------------------------------------------
E|-----------------------------------------------------------------------------------------------

                      G                    D                    G                 D           
E|-----2-----0--------------------------0--2--0-----------2-----3-----2-----2--3--2-----2--3--
B|--------------3-----3-----3-----3-----------------3-----------------------------------------
G|--------------------------------------------------------------------------------------------
D|--------------------------------------------------------------------------------------------
A|--------------------------------------------------------------------------------------------
E|--------------------------------------------------------------------------------------------

                G                    F#m   G                             D           G        
E|--5--2--------------5-----0--0-----2-----3--2--------2-----3-----2-----0-----------2--2--2--
B|--------3-----3-----------------------------------3-----------------------3-----3-----------
G|--------------------------------------------------------------------------------------------
D|--------------------------------------------------------------------------------------------
A|--------------------------------------------------------------------------------------------
E|--------------------------------------------------------------------------------------------

                   A                 Bm                         D                       G     
E|-----2--2--3--0--2--------0--2--0-----2-----3-----2--------3--2-----2--3--5--3--2--------2--
B|--3-----------------3--3-----------3-----3-----3-----3--3--------3-----------------3--3-----
G|--------------------------------------------------------------------------------------------
D|--------------------------------------------------------------------------------------------
A|--------------------------------------------------------------------------------------------
E|--------------------------------------------------------------------------------------------

                      A                       Bm                      D                    
E|--2--2-----2--2--3--0--2--------0--2--0-----2-----3-----2--------3--2-----2--3--5--3--2--
B|--------3-----------------3--3-----------3-----3-----3-----3--3--------3-----------------
G|-----------------------------------------------------------------------------------------
D|-----------------------------------------------------------------------------------------
A|-----------------------------------------------------------------------------------------
E|-----------------------------------------------------------------------------------------

Guitar Tabs for Marshmello - Alone






    G                       A                       Bm                      D                 
E|--3-----------------------0-----------------------2-----------------------2-----------------
B|--3-----------------------2-----------------------3-----------------------3-----------------
G|--4-----------------------2-----------------------4-----------------------2-----------------
D|--5-----------------------2-----------------------4-----------------------0-----------------
A|--5-----------------------0-----------------------2-----------------------------------------
E|--3-----------------------------------------------------------------------------------------

          G                    D        F#m   G                    D                    G        
E|--------3--------------------2--------2-----3--------------------2--------------------3--------
B|--------3--------------------3--------2-----3--------------------3--------------------3--------
G|--------4--------------------2--------2-----4--------------------2--------------------4--------
D|--------5--------------------0--------4-----5--------------------0--------------------5--------
A|--------5-----------------------------4-----5-----------------------------------------5--------
E|--------3-----------------------------2-----3-----------------------------------------3--------

          D                    G                 D           G                          A     
E|--------2--------------------3-----------------2-----------3--------------------------0-----
B|--------3--------------------3-----------------3-----------3--------------------------2-----
G|--------2--------------------4-----------------2-----------4--------------------------2-----
D|--------0--------------------5-----------------0-----------5--------------------------2-----
A|-----------------------------5-----------------------------5--------------------------0-----
E|-----------------------------3-----------------------------3--------------------------------

                Bm                            D                 G                          A  
E|--------------2-----------------------------2-----------------3--------------------------0--
B|--------------3-----------------------------3-----------------3--------------------------2--
G|--------------4-----------------------------2-----------------4--------------------------2--
D|--------------4-----------------------------0-----------------5--------------------------2--
A|--------------2-----------------------------------------------5--------------------------0--
E|--------------------------------------------------------------3-----------------------------

                   Bm                            D                 G                    F#mG  
E|-----------------2-----------------------------2-----------------3--------------------2--3--
B|-----------------3-----------------------------3-----------------3--------------------2--3--
G|-----------------4-----------------------------2-----------------4--------------------2--4--
D|-----------------4-----------------------------0-----------------5--------------------4--5--
A|-----------------2-----------------------------------------------5--------------------4--5--
E|-----------------------------------------------------------------3--------------------2--3--

                   D     G                    Bm                      D                    G  
E|-----------------2-----3--------------------2-----------------------2--------------------3--
B|-----------------3-----3--------------------3-----------------------3--------------------3--
G|-----------------2-----4--------------------4-----------------------2--------------------4--
D|-----------------0-----5--------------------4-----------------------0--------------------5--
A|-----------------------5--------------------2--------------------------------------------5--
E|-----------------------3-----------------------------------------------------------------3--

                      F#mG                 D     G                    F#m   G           D        
E|--------------------2--3-----------------2-----3--------------------2-----3-----------2--------
B|--------------------2--3-----------------3-----3--------------------2-----3-----------3--------
G|--------------------2--4-----------------2-----4--------------------2-----4-----------2--------
D|--------------------4--5-----------------0-----5--------------------4-----5-----------0--------
A|--------------------4--5-----------------------5--------------------4-----5--------------------
E|--------------------2--3-----------------------3--------------------2-----3--------------------

                      G                    D                    G                 D           
E|--------------------3--------------------2--------------------3-----------------2-----------
B|--------------------3--------------------3--------------------3-----------------3-----------
G|--------------------4--------------------2--------------------4-----------------2-----------
D|--------------------5--------------------0--------------------5-----------------0-----------
A|--------------------5-----------------------------------------5-----------------------------
E|--------------------3-----------------------------------------3-----------------------------

                G                    F#m   G                             D           G        
E|--------------3--------------------2-----3-----------------------------2-----------3--------
B|--------------3--------------------2-----3-----------------------------3-----------3--------
G|--------------4--------------------2-----4-----------------------------2-----------4--------
D|--------------5--------------------4-----5-----------------------------0-----------5--------
A|--------------5--------------------4-----5-----------------------------------------5--------
E|--------------3--------------------2-----3-----------------------------------------3--------

                   A                 Bm                         D                       G     
E|-----------------0-----------------2--------------------------2-----------------------3-----
B|-----------------2-----------------3--------------------------3-----------------------3-----
G|-----------------2-----------------4--------------------------2-----------------------4-----
D|-----------------2-----------------4--------------------------0-----------------------5-----
A|-----------------0-----------------2--------------------------------------------------5-----
E|--------------------------------------------------------------------------------------3-----

                      A                       Bm                      D                    
E|--------------------0-----------------------2-----------------------2--------------------
B|--------------------2-----------------------3-----------------------3--------------------
G|--------------------2-----------------------4-----------------------2--------------------
D|--------------------2-----------------------4-----------------------0--------------------
A|--------------------0-----------------------2--------------------------------------------
E|-----------------------------------------------------------------------------------------

tabs and chords, guitar tabs, music transcription, music technology, deep learning, music information retrieval, transcribe into tabs & chords, chordify, music renditions, songsterr, reverbnation, tabulature, bollywood chords, ultimate guitar, yousician, guitar lessons, acoustic guitar, electric guitar, guitar tuner, 911 tabs