Guitar Tabs for Photograph - Ed Sheeran

[Intro]: 

e|----------------------|-----------------------|-----------------------|-----------------------|-----------------------|
B|-----1--0--1----------|------1--0--1----------|------1--0--1----------|------1--0--1----------|------1--0--1----------|
G|--------------0-------|---------------0-------|---------------0-------|---------------0-------|---------------0-------|
D|-----------------3--2-|------------------3--2-|------------------3--2-|------------------3--2-|------------------3--2-|
A|--3-------------------|---3-------------------|---0-------------------|---0-------------------|-----------------------|
E|----------------------|-----------------------|-----------------------|-----------------------|---3-------------------|

e|----------------------|-----------------------|--------------------|
B|-----1--0--1----------|------1--0--1----------|--------------------|
G|--------------0-------|---------------0-------|--------------------|
D|-----------------3--2-|------------------3--2-|--------------------|
A|----------------------|-----------------------|--------------------|
E|--3-------------------|---1-------------------|---1----------------|

(Chords palm muted)

[Verse]:

            C                Am
Loving can hurt, loving can hurt sometimes
              G                      F
But it's the only thing that I know
              C                         Am
When it gets hard, you know it can get hard sometimes
           G                                F
It is the only thing that makes us feel alive

Pre Chorus:

Am                      F
We keep this love in a photograph
C                         G
We made these memories for ourselves
          Am                      F
Where our eyes are never closing, hearts are never broken
C                           G
And time's forever frozen still

[Chorus]:

           C
So you can keep me
                           G
Inside the pocket of your ripped jeans
                           Am
Holding me closer 'til our eyes meet
                   F
You won't ever be alone, wait for me to come home
e|----------------------|--------------|
B|-----1--0--1----------|------1--0--1-|
G|--------------0-------|--------------|
D|-----------------3--2-|--------------|
A|--3-------------------|---3----------|
E|----------------------|--------------|

[Verse]:

            C                 Am
Loving can heal, loving can mend your soul
               G                           F
And it's the only thing that I know, know
                       C                                Am
I swear it will get easier, remember that with every piece of you
               G                                     F
And it's the only thing we take with us when we die

Pre Chorus:

Am                           F      
We keep this love in this photograph
C                          G
We made these memories for ourselves
           Am                      F
Where our eyes are never closing, hearts are never broken
     C                     G
And time's forever frozen still

[Chorus]:

           C
So you can keep me
                           G
Inside the pocket of your ripped jeans
                           Am
Holding me closer 'til our eyes meet
                   F
You won't ever be alone


            C
And if you hurt me
                        G
That's okay baby, only words bleed
                            Am
Inside these pages you just hold me
                          F
And I won't ever let you go
                       Am
Wait for me to come home
                        F
Wait for me to come home
                        C
Wait for me to come home
                        Gsus4
Wait for me to come home


        C
You can fit me
                                          G
Inside the necklace you got when you were sixteen
                                Am
Next to your heartbeat where I should be
                          F
Keep it deep within your soul
            C
And if you hurt me
                              G
Well, that's okay baby, only words bleed
                             Am
Inside these pages you just hold me
                         F
And I won?t ever let you go

         C                             G
When I'm away, I will remember how you kissed me
                           Am
Under the lamppost back on Sixth street
                                F
Hearing you whisper through the phone,
                            ( C )
"Wait for me to come home."
tabs and chords, guitar tabs, music transcription, music technology, deep learning, music information retrieval, transcribe into tabs & chords, chordify, music renditions, songsterr, reverbnation, tabulature, bollywood chords, ultimate guitar, yousician, guitar lessons, acoustic guitar, electric guitar, guitar tuner, 911 tabs