Guitar Tabs for Ed Sheeran - Photograph

Ed Sheeran - Photograph

!!!! Tuning: EADEBE !!!!

Intro

E|-----0-----0-----------------0-----0--------------
B|--------4--------0--------------4--------0--------
E|---------------------5\4---------------------5\4--
D|--------------------------------------------------
A|--------------------------------------------------
E|--0--------0---------0----0--------0---------0----

E|-----0-----0-----------------0-----0--------------
B|--------4--------0--------------4--------0--------
E|---------------------5\4---------------------5\4--
D|--------------------------------------------------
A|--4--------4---------4----4--------4---------4----
E|--------------------------------------------------

E|-----0-----0-----------------0-----0--------------
B|--------4--------0--------------4--------0--------
E|---------------------5\4---------------------5\4--
D|--------------------------------------------------
A|--2--------2---------2----2--------2---------2----
E|--------------------------------------------------

E|-----0-----0--------------0--------
B|--------4--------0--------0--------
E|---------------------5\4--0--------
D|-----------------------------------
A|--0--------0---------0----0--------
E|-----------------------------------

1st Verse

            (E)
Loving can hurt

            (C#m)
Loving can hurt sometimes

             (B9)                     (A9)
But it's the only thing that I know

              (E)
When it gets hard

                     (C#m)
You know it can get hard sometimes

          (B9)
It is the only thing that

                (A9)
Makes us feel alive

Pre-Chorus

(C#m)                           (A9)
     We keep this love in a photograph
     
(E)                         (B9)
  We made these memories for ourselves
  
          (C#m)
Where our eyes are never closing

     (A9)
Our hearts were never broken

     (E)                      (B9)
And time's forever frozen still

Chorus

            (E)
So you can keep me inside the pocket

         (B9)
Of your ripped jeans

                           (C#m)
Holding me close until our eyes meet

                    (A9)
You won't ever be alone

                     
Wait for me to come home

Bridge

E|-----0-----0--------------0-----0--
B|--------4-----0--------------4-----
E|------------------5\4--------------
D|-----------------------------------
A|-----------------------------------
E|--0--------0------0----0--------0--

2nd Verse

            (E)
Loving can heal

            (C#m)
Loving can mend your soul

             (B9)                     (A9)
And it's the only thing that I know

                    (E)
I swear it will get easier

                          (C#m)
Remember that with every piece of ya

             (B9)
And it's the only thing we take

                 (A9)
With us when we die

Pre-Chorus

(C#m)                           (A9)
     We keep this love in a photograph
     
(E)                         (B9)
  We made these memories for ourselves
  
          (C#m)
Where our eyes are never closing

     (A9)
Our hearts were never broken

     (E)                      (B9)
And time's forever frozen still

Chorus

            (E)
So you can keep me inside the pocket

         (B9)
Of your ripped jeans

                           (C#m)
Holding me close until our eyes meet

                    (A9)
You won't ever be alone

            (E)
And if you hurt me that's okay baby

      (B9)
Only words bleed

                             (C#m)
Inside these pages you just hold me

                          (A9)
And I won't ever let you go

Bridge

                     (C#m)
Wait for me to come home

                     (A9)
Wait for me to come home

                     (E)
Wait for me to come home

                     (B9)
Wait for me to come home

Last Chorus
              (E)
So you could fit me inside the necklace you got

               (B9)
When you were sixteen 

                                 (C#m)
Next to your heartbeat where I should be

                          (A9)
Keep it deep within your soul

            (E)
And if you hurt me, well, that's okay baby

       (B9)
Only words bleed

                             (C#m)
Inside these pages you just hold me

                          (A9)
And I won't ever let you go

Ending
           (E)
When I'm away

                         (B9)
I will remember how you kissed me

                           (C#m)
Under the lamppost back on 6th street

                                  (A9)
Hearing you whisper through the phone


Wait for me to come home

----------------------------------------------------------------------------------------
Chords

    E    C#m    B9    A9
E|--0--------------------
B|--0--------------------
E|--0--------------------
D|--6-----11----9-----7--
A|--7-----11----9-----7--
E|--------9-----7-----5--
tabs and chords, guitar tabs, music transcription, music technology, deep learning, music information retrieval, transcribe into tabs & chords, chordify, music renditions, songsterr, reverbnation, tabulature, bollywood chords, ultimate guitar, yousician, guitar lessons, acoustic guitar, electric guitar, guitar tuner, 911 tabs