Guitar Tabs for Shape Of You - Ed Sheeran

(/) Slide Up  (\) Slide Down  (h) Hammer On  (p) Pull Off  (b) Bend (r) Release (v) Vibrato (x) Muted

Tabs for Song : 

                                                            
E|-----0--------0--------0-----------------0--------0--------0-----------------0--0--0--0--0--0--0--0--
B|--2-----2--2-----2--2-----2--4--2--0--2-----2--2-----2--2-----2--4--2--0--2--------------------------
G|-----------------------------------------------------------------------------------------------------
D|-----------------------------------------------------------------------------------------------------
A|-----------------------------------------------------------------------------------------------------
E|-----------------------------------------------------------------------------------------------------

E|--0--0--0--0--0--0--0--2--4--4----7--4--4--4--4--4--2--2--2--2--2--2--2--2--2--2--2--0--------4--4--4
B|----------------------------------------------------------------------------------------2--2---------
G|-----------------------------------------------------------------------------------------------------
D|-----------------------------------------------------------------------------------------------------
A|-----------------------------------------------------------------------------------------------------
E|-----------------------------------------------------------------------------------------------------

E|----4--4--4--4--4--4--4--4--4--4--4--7--4--4--2--2--0--4-----2--0--0--0--0--7--4--4--2--2--2--2--2--2
B|-----------------------------------------------------------------------------------------------------
G|-----------------------------------------------------------------------------------------------------
D|-----------------------------------------------------------------------------------------------------
A|-----------------------------------------------------------------------------------------------------
E|-----------------------------------------------------------------------------------------------------

E|----2--2--2--0------------------------------------4--2--2--2--4--2--0-----0--4--2--2--------7--2--4--
B|----------------2---------0--2--2--2--2--2--0--2-----------------------2--------------2--------------
G|-------------------1--1--1---------------------------------------------------------------------------
D|-----------------------------------------------------------------------------------------------------
A|-----------------------------------------------------------------------------------------------------
E|--

E|--2--0--0-----0--2--4--2--0--2--0-------------------4--2--2--2--4--2--0-----0--4--2--2-----7--2--4--2
B|-----------2-----------------------2--2--2--2-0--2-----------------------2--------------2------------
G|-----------------------------------------------------------------------------------------------------
D|-----------------------------------------------------------------------------------------------------
A|-----------------------------------------------------------------------------------------------------
E|--

E|----0--0--------7--2--4--2--0--0-----------------0--2--4--2--0--0--2--2--------0--2--4--2--0--0--2---
B|----------2--2--------------------2-----0--2--------------------------------2-----------------------2
G|-------------------------------------1---------------------------------------------------------------
D|-----------------------------------------------------------------------------------------------------
A|-----------------------------------------------------------------------------------------------------
E|--

E|----------0--2--4-----0--2--2--0--2--4--2--0--2--------0--4--7--4--2--0--2--------0--2--4--2--0--2---
B|-------2-----------2-----------------------------2-----------------------------2--------------------2
G|-----------------------------------------------------------------------------------------------------
D|-----------------------------------------------------------------------------------------------------
A|-----------------------------------------------------------------------------------------------------
E|--

E|----------------0--2--4-----0--2--2-----0--2--4--2--0--2--------------0--0--2--2--4--4-----0--2--4--2
B|----2--2--2--2-----------2--------------------------------2-----2--2---------------------------------
G|-----------------------------------------------------------------------------------------------------
D|-----------------------------------------------------------------------------------------------------
A|-----------------------------------------------------------------------------------------------------
E|--

E|----0--2--------------0--0--2--2--4--4-----0--2--4--2--0--2--------------0--0--2--2--4--4-----0--2--4
B|----------2-----2--2-----------------------------------------2-----2--2------------------------------
G|-----------------------------------------------------------------------------------------------------
D|-----------------------------------------------------------------------------------------------------
A|-----------------------------------------------------------------------------------------------------
E|--

E|----2--0--2--------------------0--2--4-----0--2--2-----0--2--4--2--0--0--2--------0--0--0--0--0--0--0
B|-------------2-----2--2--2--2-----------2--------------------------------------2---------------------
G|-----------------------------------------------------------------------------------------------------
D|-----------------------------------------------------------------------------------------------------
A|-----------------------------------------------------------------------------------------------------
E|--

E|----0--0--0--0--0--0--0--2--4--4-----4--4--7--4--2--2--2--2--2--2--2--2--2--2--2--2--2--2--2--0--0--0
B|-----------------------------------------------------------------------------------------------------
G|-----------------------------------------------------------------------------------------------------
D|-----------------------------------------------------------------------------------------------------
A|-----------------------------------------------------------------------------------------------------
E|--

E|-------4--4--4--9--9--9--9--9--7--4--7--4--4--2--2--2--2--0--2--2--2--2--2--2--0--4-----0--0--0--0--0
B|-----------------------------------------------------------------------------------------------------
G|-----------------------------------------------------------------------------------------------------
D|-----------------------------------------------------------------------------------------------------
A|-----------------------------------------------------------------------------------------------------
E|--

E|----0--4--4--0--0--0--4--4--4--4--2--2--2--2--2--2--0--0--------------------------------4--2--2--2--4
B|----------------------------------------------------------------0--2--2--2--2--2--0--2---------------
G|----------------------------------------------------------1--1---------------------------------------
D|-----------------------------------------------------------------------------------------------------
A|-----------------------------------------------------------------------------------------------------
E|--

E|----2--0-----0--4--2--2--------7--2--4--2--0--0--------0--2--4--2--0--2--0--------------------4--2--2
B|----------2--------------2-----------------------2--------------------------2--2--2--2--0--2---------
G|-----------------------------------------------------------------------------------------------------
D|-----------------------------------------------------------------------------------------------------
A|-----------------------------------------------------------------------------------------------------
E|--

E|----2--4--2--0-----0--4--2--2-----7--2--4--2--0--0--------7--2--4--2--0--0-----------------0--2--4--2
B|----------------2--------------2--------------------2--2--------------------2-----0--2---------------
G|-------------------------------------------------------------------------------1---------------------
D|-----------------------------------------------------------------------------------------------------
A|-----------------------------------------------------------------------------------------------------
E|--

E|----0--0--2--2--------0--2--4--2--0--0--2-----------0--2--4-----0--2--2-----0--2--4--2--0--2--------0
B|-------------------2-----------------------2-----2-----------2--------------------------------2------
G|-----------------------------------------------------------------------------------------------------
D|-----------------------------------------------------------------------------------------------------
A|-----------------------------------------------------------------------------------------------------
E|--

E|----4--7--4--2--0--2--------0--2--4--2--0--2-----------------0--2--4-----0--2--2-----0--2--4--2--0--2
B|-------------------------2--------------------2--2--2--2--2-----------2------------------------------
G|-----------------------------------------------------------------------------------------------------
D|-----------------------------------------------------------------------------------------------------
A|-----------------------------------------------------------------------------------------------------
E|--

E|----------------0--0--2--2--4--4-----0--2--4--2--0--2--------------0--0--2--2--4--4-----0--2--4--2--0
B|----2-----2--2-----------------------------------------2-----2--2------------------------------------
G|-----------------------------------------------------------------------------------------------------
D|-----------------------------------------------------------------------------------------------------
A|-----------------------------------------------------------------------------------------------------
E|--

E|----2--------------0--0--2--2--4--4-----0--2--4--2--0--2--------------------0--2--4-----0--2--2-----0
B|-------2-----2--2-----------------------------------------2-----2--2--2--2-----------2---------------
G|-----------------------------------------------------------------------------------------------------
D|-----------------------------------------------------------------------------------------------------
A|-----------------------------------------------------------------------------------------------------
E|--

E|----2--4--2--0--0--2--------4--4--2--0--2--4-----------4--4--2--0--2--0-----------4--4--2--0--2--4---
B|----------------------2-----------------------2--2-----------------------2--2-----------------------2
G|-----------------------------------------------------------------------------------------------------
D|-----------------------------------------------------------------------------------------------------
A|-----------------------------------------------------------------------------------------------------
E|--

E|----------4--4--2--0--2--0-----------4--4--2--0--2--4-----------4--4--2--0--2--0-----------4--4--2--0
B|----2-----------------------2--2----------------------2--2-----------------------2--2----------------
G|-----------------------------------------------------------------------------------------------------
D|-----------------------------------------------------------------------------------------------------
A|-----------------------------------------------------------------------------------------------------
E|--

E|----2--4-----------4--4--2--0--0-----------0--2--4--2--0--0--2--2--------0--2--4--2--0--0--2---------
B|---------2-----------------------2--2--------------------------------2-----------------------2-----2-
G|-----------------------------------------------------------------------------------------------------
D|-----------------------------------------------------------------------------------------------------
A|-----------------------------------------------------------------------------------------------------
E|--

E|----0--2--4-----0--2--2-----0--2--4--2--0--2--------0--4--7--4--2--0--2--------0--2--4--2--0--2------
B|------------2--------------------------------2-----------------------------2--------------------2----
G|-----------------------------------------------------------------------------------------------------
D|-----------------------------------------------------------------------------------------------------
A|-----------------------------------------------------------------------------------------------------
E|--

E|----------------0--2--4-----0--2--2-----0--2--4--2--0--2--------4--4--2--0--2--4-----------4--4--2--0
B|---2--2--2--2-----------2--------------------------------2-----------------------2--2----------------
G|-----------------------------------------------------------------------------------------------------
D|-----------------------------------------------------------------------------------------------------
A|-----------------------------------------------------------------------------------------------------
E|--

E|----2--0-----------4--4--2--0--2--4-----------4--4--2--0--2--0-----------4--4--2--0--2--4-----------4
B|---------2--2-----------------------2--2-----------------------2--2------------------------2--2------
G|-----------------------------------------------------------------------------------------------------
D|-----------------------------------------------------------------------------------------------------
A|-----------------------------------------------------------------------------------------------------
E|--

E|----4--2--0--2--0-----------------------0--2--4-----0--2--2-----0--2--4--2--0--2--2-----
B|-------------------2--2-----2--2--2--2-----------2-----------------------------------2--
G|----------------------------------------------------------------------------------------
D|----------------------------------------------------------------------------------------
A|----------------------------------------------------------------------------------------
E|--
tabs and chords, guitar tabs, music contests, music covers, songsterr, reverbnation, renditions, tabulature, bollywood chords, ultimate guitar, yousician, guitar lessons, torrins, fender, gibson, acoustic guitar, electric guitar, youtube covers, gootar, guitar tuner, A-Z tabs, 911 tabs