Guitar Tabs for Shameless

(/) Slide Up  (\) Slide Down  (h) Hammer On  (p) Pull Off  (b) Bend (r) Release (v) Vibrato (x) Muted

Tabs for Song : Shameless

Song lyrics here

Intro
E|--------------------------------------------------------------------
B|--------------------------------------------------------------------
G|--------------------------------------------------------------------
D|---------------------3\5--3--------------3-----4--------------------
A|-----------------------------5--------------------------------------
E|--12/0-----1--2--3--------------1--1--1-----2-----3---1b2--3--------

Verse 1
E|-----------------------------------------------------------------------------------(x2)
B|-----------------------------------------------------------------------------------
G|-----------------------------------------------------------------------------------
D|-----------------------------------------------------------------------------------
A|--10-10-10--8b9--10-10-10--8b9--10-10-10-----8b9--10-10-10----------8---------8h10-
E|-----------------------------------------------------------8--9--10----10----------

E|-----------------------------------------------------------------------------
B|-----------------------------------------------------------------------------
G|-----------------------------------------------------------------------------
D|-----------8--10----------8--7-----------------------------------------------
A|--10-10-10-------10-10-10-------10-10-10--8b9--10-10-10----------8-----8--10-
E|--------------------------------------------------------8--9--10----10-------

E|-----------------------(untilchorus)
B|-----------------------
G|-----------------------
D|-----------------------
A|--10-10-10-10-10-10-10p
E|-----------------------

Chorus
E|-----------------------------------------------------------
B|-----------------------------------------------------------
G|-----------------------------------------------------------
D|--------------------------------------------10\8------8\6--
A|-----------------------------------------------------------
E|--3--3--3-----1--3--3--3---1\6--6--6---1\8--------6--------

E|-----------------------------------------------------------------------------------------
B|-----------------------------------------------------------------------------------------
G|-----------------------------------------------------------------------------------------
D|-----------5--3-----------------5--3--------------------------8--------10\8------8\6-----
A|-----------------5--4-----------------4--5-----------6--7--8-----8-----------------------
E|--3--3--3--------------3--3--3--------------6--6--6-----------------8--------6--------1--

Verse 2
E|--------------------------------------------------------------------------
B|--------------------------------------------------------------------------
G|--------------------------------------------------------------------------
D|--------------------------------------------------------------------------
A|--------------------------------------10\6--------8--5-----------3--------
E|--1---2\15-------------3--------------------------------------------6--5--

Second Pre Chorus (...he doesnt learn)
E|-----------------------------------------------------------------------------------------
B|-----------------------------------------------------------------------------------------
G|-----------------------------------------------------------------------------------------
D|------------------------------------------------3\5--3-----------------------------------
A|--------------------------------------------------------5--4--3--------------------------
E|--3--3--3--------3--3--3--------3--3--3--------------------------6--3--3--3--1--3--3--3--

E|--------------------------------
B|--------------------------------
G|--------------------------------
D|--------------------------------
A|--------------------------------
E|--1--3--3--3--3--3--3--3--1---3\

Chorus

Breakdown ( repeat until I say '2 nos looks like', in which case end on fret 1 on E)
E|--------------------------------------------------------------------------------
B|--------------------------------------------------------------------------------
G|--------------------------------------------------------------------------------
D|--------------------------------------------------------------10-------11----12-
A|-----------3--5--------------3--5--------------6--8--------10----10-------------
E|--3--3--3-----------3--3--3-----------6--6--6-----------8-----------9-----10----

Solo - Chorus Note
Finale
E|--------------------------------------
B|--------------------------------------
G|--------------------------------------
D|--------------------3--5--3--5--------
A|--------------------------------5-----
E|--1--2--3--1--2--3-----------------3--



Paste any tab in acousterr's tab maker and we'll play it !!!
Now supports capo and sound effects for vibrato/pull-off/hammer/bends/mutes etc !!! Checkout help section
tabs and chords, guitar tabs, music contests, music covers, songsterr, reverbnation, renditions, tabulature, bollywood chords, ultimate guitar, yousician, guitar lessons, torrins, fender, gibson, acoustic guitar, electric guitar, youtube covers, gootar, guitar tuner, A-Z tabs, 911 tabs