Guitar Tabs for Femme Fatale

(/) Slide Up  (\) Slide Down  (h) Hammer On  (p) Pull Off  (b) Bend (r) Release (v) Vibrato (x) Muted

Tabs for Song : Femme Fatale

Song lyrics here
E|--------------------------------------------------------------------------------------------
B|--------------------------------------------------------------------------------------------
G|--------------------------------------------------------------------------------------------
D|--------------------------------------------------------------------------------------------
A|--------------------------------------------------------------------------------------------
E|--0-----0-----0-----10/12-10/12-10----0-----0-----0-----10\12-10\12-10----0-----0-----0-----

E|--------------------------------------------------------------------------------------------
B|--------------------------------------------------------------------------------------------
G|--------------------------------------------------------------------------------------------
D|--------------------------------------------------------------------------2--2--2-----------
A|--------------------------7--7--5--5--7-----------------------------------------------------
E|--10\12-10\12-10----0--------------------0--0--7--6--5-----0-----------------------0--------

E|-----------------------------------------------------
B|-----------------------------------------------------
G|-----------------------------------------------------
D|--2--2--2-----------2--2--2------5\7--5--------------
A|-----------------------------------------7--6--5-----
E|-----------0--------------------------------------7--

Verse 1 (x2)
E|--------------------------------------------------------------------------------------
B|--------------------------------------------------------------------------------------
G|--------------------------------------------------------------------------------------
D|--------------------------5--5--5-----------------------------5--5--------------------
A|---5h7--7-----7---5h-7p5-----------5---5h7--7-----7---5h-7p5--------5---5h7-----------
E|-----------------------------------------------------------------------------0-----0--

E|--------------------------------------x(
B|--------------------------------------
G|--------------------------------------
D|-----------5--5--------7-----------5--
A|---5h-7p5--------5--------------------
E|--------------------5--------5--3-----

Pre Chorus

E|--------------------------------------------------------------------------------------
B|--------------------------------------------------------------------------------------
G|--------------------------------------------------------------------------------------
D|-----14----------14----------12-------12----------11-------11-------2-----2---2/0---2\
A|--------------------------------------------------------------------------------------
E|--12-------10\12----12\-0/10-----8\10----10/-0/9------7/9------9/0--------------------

Chorus
E|-----------------------------------------------------------------------------------------
B|-----------------------------------------------------------------------------------------
G|-----------------------------------------------------------------------------------------
D|-----------------------12\14-12----------------------------------------------------------
A|--------------------------------14-13----------------------12\14-12----12-------10-11-12-
E|--12-------10-11-12-------------------12-------10-11-12-------------15-------------------

E|--------------------------------------------
B|--------------------------------------------
G|------9\12-12-11-11-10-10-------------------
D|--------------------------------------------
A|--------------------------------------------
E|-----------------------------12-10-5---3b4--
(play intro notes after chorus)

Verse 2 (continuing from end of chorus)

E|-----------------------------------------------------------------------------------
B|-----------------------------------------------------------------------------------
G|-----------------------------------------------------------------------------------
D|-----------------------------------------------------------------5--5--------------
A|-----7--7--5--5--7------------------------5h7--7-----7---5h-7p5--------5---5\7-----
E|--0-----------------0--0--0--7--6--5--------------------------------------------0--

E|-----------------------------------------------------------------------------------
B|-----------------------------------------------------------------------------------
G|-----------------------------------------------------------------------------------
D|--------------------------5--5-----------------------------------------------------
A|---5h7--7-----7---5h-7p5--------5---5h7--------------------------------------------
E|-----------------------------------------0------------------3h5--5-----5---3h-5p3--

E|-----------------------------------------
B|-----------------------------------------
G|-----------------------------------------
D|--------------------7-----7-----5-----4--
A|-----------------------------------------
E|---5\6--5------3\5-----------3-----2-----


Repeat pre-chorus, but instead of going down to E minor near the end:
E|--------------------------
B|--------------------------
G|--------------------------
D|--------------------------
A|--------------------------
E|--9--10\0-----11\0-----12-

Normal Chorus, but at the end for 'hard to get and harder to please' its:

Femme fatale,       Q'uelle Surpise,                still hard to get,   still hard to please
E|--------------------------------------------------------------------------------------
B|--------------------------------------------------------------------------------------
G|--------------------------------------------------------------------------------------
D|--------------------------------------------------------------------------------------
A|--7-----------------5---------------------------------------------------7\5--------7--
E|--------------------------------------------5-----------------------------------------
Let that last note ring, then:
                                           ...said shes got you.....
E|--------------------------------------------
B|--------------------------------------------
G|--------------------------------------------
D|--------------------------------------------
A|--------------------------------------------
E|--0-----------------------------------12\0--

Coda: But I've seen your type before 
E|-----------------------------------------------------------------------------------
B|-----------------------------------------------------------------------------------
G|-----------------------------------------------------------------------------------
D|-----------------------------------------------------------------------------------
A|-----------------------------------------------------------------------------------
E|---0\12-------------------------0---------------------------0\10----------9--------

E|--------------------------------
B|--------------------------------
G|--------------------------------
D|--------------------------------
A|--------------------------------
E|--8-----------7-----5--3--2-----

Breakdown notes (like intro, etc.)

Finale:
E|-----------------------------------------------------------------------------------------
B|-----------------------------------------------------------------------------------------
G|-----------------------------------------------------------------------------------------
D|-----------------------------------------------------------------------------------------
A|-----------------------------------------------------------------------------------------
E|--0-----0-----0-----10h12-12-12-12----0-----0-----0-----10h12-12-12-12----0-----0-----0--

E|--------------------------------------------------------------\
B|--------------------------------------------------------------
G|--------------------------------------------------------------
D|--------------------------------------------------------------
A|--------------------------------------------------------------
E|--10h12-12-12-12-------10h12-12----10h12-12----10h12-12----0--






Paste any tab in acousterr's tab maker and we'll play it !!!
Now supports capo and sound effects for vibrato/pull-off/hammer/bends/mutes etc !!! Checkout help section
tabs and chords, guitar tabs, music contests, music covers, songsterr, reverbnation, renditions, tabulature, bollywood chords, ultimate guitar, yousician, guitar lessons, torrins, fender, gibson, acoustic guitar, electric guitar, youtube covers, gootar, guitar tuner, A-Z tabs, 911 tabs