Guitar Tabs for The Blackout Ballad

(/) Slide Up  (\) Slide Down  (h) Hammer On  (p) Pull Off  (b) Bend (r) Release (v) Vibrato (x) Muted

Tabs for Song : The Blackout Ballad

Intro

E|-----------------------------------------------------------------
B|-----------------------------------------------------------------
G|-----------------------------------------------------------------
D|-----------------------------------------------------------------
A|-----------------------------------------------------------------
D|--12-------------------12b14-12-------------------12b14----------

Verse 1

Just say the word, and he'll go                                             I guess all this mess
E|-----------------------------------------------------------------------------------------------
B|-----------------------------------------------------------------------------------------------
G|-----------------------------------------------------------------------------------------------
D|-----------------------------------------------------------------------------------------------
A|-----------------------------------------------------------------------------------------------
D|--12----12-8-----8--9-----9--8--------12----12-8-----8--9-----9--8--------12----12-14----14-16-

                                                                         so crying into your phone.
E|--------------------------------------------------------------------------------------------------
B|--------------------------------------------------------------------------------------------------
G|--------------------------------------------------------------------------------------------------
D|--------------------------------------------------------------------------------------------------
A|--------------------------------------------------------------------------------------------------
D|--16-14----14-14-14h16-14-12----12-14----14-16----16-16h17-17-17-------5---------5h7--5--5--------

E|--------------------m
B|--------------------
G|--------------------
D|--------------------
A|--------------------
D|---5h7--5--5--------

CHORUS


                                                             ooooooooooh    so dont waste your time
E|-----------------------------------------------------------------------------------------------
B|-----------------------------------------------------------------------------------------------
G|-----------------------------------------------------------------------------------------------
D|-----------------------------------------------------------------------------------------------
A|-----------------------------------------------------------------------------------------------
D|--0--0--0--0--0--0--0--0--0--0--0--0--12-12-12-12-12-12-0--0--0--0--0--0--7--7--7--7--7--7--7--

                                                       mistakes are just what it takes sometimes
E|-----------------------------------------------------------------------------------------------
B|-----------------------------------------------------------------------------------------------
G|-----------------------------------------------------------------------------------------------
D|-----------------------------------------------------------------------------------------------
A|-----------------------------------------------------------------------------------------------
D|--7--7--7--7--7--0--0--0--0--0--0--0--0--0--0--0--0--5--5--5--5--5--5--5--5--5--5--5--5--0--0--

                                  and the polaroids with the indie boys...                 
E|--------------------------------------------------------------------------------------------------
B|--------------------------------------------------------------------------------------------------
G|--------------------------------------------------------------------------------------------------
D|--------------------------------------------------------------------------------------------------
A|--------------------------------------------------------------------------------------------------
D|--0--0--0--0--0--0--0--0--0--0--5--5--5--5--5--5--7--7--7--7--5--7---7h9--7--5---------------5\10-
oh the golden years
E|-----------------------------------
B|-----------------------------------
G|-----------------------------------
D|-----------------------------------
A|--10-------------------------------
D|-----------------------0-----------

VERSE 2

E|--------------------------------------------------------------------------------------------------
B|--------------------------------------------------------------------------------------------------
G|--------------------------------------------------------------------------------------------------
D|------------------------7\9--7------------------------------------------7\9--7--------------------
A|--------------------------------10-9--7--9--10----------------------------------10-9--7--9--10----
D|--12----12-8-----8--9--------------------------12----12-8-----8--9--------------------------------

E|-----------------------------------------------------------------------------------------------
B|-----------------------------------------------------------------------------------------------
G|-----------------------------------------------------------------------------------------------
D|-----------------------------------------------------------------------------------------------
A|--5--5--7-----7--9-----9--7-----7--7---7h9--7-----5-----5--7-----7--9-----9---9h10-10-10-10----
D|-----------------------------------------------------------------------------------------------

E|-----------------------------------------------------------
B|-----------------------------------------------------------
G|-----------------------------------------------------------
D|-----------------------------------------------------------
A|-----------------------------------------------------------
D|--5------------5h7--5--5------------5h7--5-----0-----------

(CHORUS)

Breakdown (slight fingerpicking, ambience)
E|-----------------------------
B|-----------------------------
G|-----------------------------
D|-----------------------------
A|-----------------------------
D|--0--0--0--0--0--0--0--0--0--

... and with the polaroids with the indie boys catching your tears
E|--------------------------------------------------------------------------
B|--------------------------------------------------------------------------
G|--------------------------------------------------------------------------
D|--------------------------------------------------------------------------
A|--------------------------------------------------------------------------
D|-----------------------------------------------------------5--------------

ohhhhhh      FUCK the golden years
E|--------------------------------------------------------------------------------------
B|--------------------------------------------------------------------------------------
G|--------------------------------------------------------------------------------------
D|--------------------------------------------------------------------------------------
A|--------------------------------------------------------------------------------------
D|-----------12\0-----------------0--------0--------0--------0--------12-12-12-12-12-12-

E|-----------------------------------------------------------------------------------
B|-----------------------------------------------------------------------------------
G|-----------------------------------------------------------------------------------
D|-----------------------------------------------------------------------------------
A|-----------------------------------------------------------------------------------
D|--0--0--0--0--0--0------7\0-----------7--7--7--7--7--7--9--7--9--12-12-12-12-12-12-

E|--------------------------------------------------------------------------------------
B|--------------------------------------------------------------------------------------
G|--------------------------------------------------------------------------------------
D|--------------------------------------------------------------------------------------
A|--------------------------------------------------------------------------------------
D|--7--7--7--7--7--7--5--5--5--5--5--5--5--5--5--7--5--7--0--0--0--0--0--0--12-12-12-12-

E|--------------------------------------------------------------------------------------
B|--------------------------------------------------------------------------------------
G|--------------------------------------------------------------------------------------
D|--------------------------------------------------------------------------------------
A|-----------------------------------------------------------------------------10-------
D|--12-12-5--5--5--5--5--5--7--7--7--7--7--7--9--------7--------5---------5\10----------


Biiiiiig finish, starting quiet then going mental 
E|-----------------------------------------------------------------------------
B|-----------------------------------------------------------------------------
G|-----------------------------------------------------------------------------
D|-----------------------------------------------------------------------------
A|-----------------------------------------------------------------------------
D|--0--0--0--0--0--0--0--0--0--0--12-12-12-12-12-12-12-12-12-12-12----------0--





Paste any tab in acousterr's tab maker and we'll play it !!!
Now supports capo and sound effects for vibrato/pull-off/hammer/bends/mutes etc !!! Checkout help section
tabs and chords, guitar tabs, music transcription, music technology, deep learning, music information retrieval, transcribe into tabs & chords, chordify, music renditions, songsterr, reverbnation, tabulature, bollywood chords, ultimate guitar, yousician, guitar lessons, acoustic guitar, electric guitar, guitar tuner, 911 tabs