Guitar Tabs for Señorita - Shawn Mendes, Camila Cabello Guitar Tabs

(/) Slide Up  (\) Slide Down  (h) Hammer On  (p) Pull Off  (b) Bend (r) Release (v) Vibrato (x) Muted

Tabs for Song : 
BPM : 200
e|-----------------------------------------------------------------
b|--13-10-------13-12-8--12-13-12-10-12-13----------------13-12-8--
g|-----------9--------------------------------12\9--9--------------
D|-----------------------------------------------------------------
A|-----------------------------------------------------------------
E|-----------------------------------------------------------------



e|-----------------------------------------------------
b|--12-13-12-10-8--------13-13-13-------------13-13-13-
g|-----------------10----------------10-10-------------
D|-----------------------------------------------------
A|-----------------------------------------------------
E|-----------------------------------------------------



e|--------------------------------------------------
b|--12-13-12-13-12-8--12-13-12-13-12-10-10----------
g|--------------------------------------------------
D|--------------------------------------------------
A|--------------------------------------------------
E|--------------------------------------------------




e|--------------------------------------------------------------------------------
b|--12-13-12-10-12-13-10-------13-12-8--12-13-12-10-12-13----------------13-12-8--
g|--------------------------9--------------------------------12\9--9--------------
D|--------------------------------------------------------------------------------
A|--------------------------------------------------------------------------------
E|--------------------------------------------------------------------------------


e|-----------------------------------------------------
b|--12-13-12-10-8--------13-13-13-------------13-13-13-
g|-----------------10----------------10-10-------------
D|-----------------------------------------------------
A|-----------------------------------------------------
E|-----------------------------------------------------



e|--------------------------------------------------
b|--12-13-12-13-12-8--12-13-12-13-12-10-10\8--------
g|--------------------------------------------------
D|--------------------------------------------------
A|--------------------------------------------------
E|--------------------------------------------------




e|--12----12----------12----------12-------------------
b|-----15----15-13----------15-------15-13-13-12-------
g|--------------------------------------------------12-
D|-----------------------------------------------------
A|-----------------------------------------------------
E|-----------------------------------------------------

e|--12----------12-------------12----------12-13p12-------------------12-12-12----------------------------
b|--------15----------15-13----------15----------------15-13-------------------------------------15-15-15-
g|--------------------------------------------------------------14-------------------12-12-12-------------
D|--------------------------------------------------------------------------------------------------------
A|--------------------------------------------------------------------------------------------------------
E|--------------------------------------------------------------------------------------------------------










e|--------------------------------------------------------------------------------
b|--12-13-12-10-12-13-10-------13-12-8--12-13-12-10-12-13----------------13-12-8--
g|--------------------------9--------------------------------12\9--9--------------
D|--------------------------------------------------------------------------------
A|--------------------------------------------------------------------------------
E|--------------------------------------------------------------------------------



e|-----------------------------------------------------
b|--12-13-12-10-8--------13-13-13-------------13-13-13-
g|-----------------10----------------10-10-------------
D|-----------------------------------------------------
A|-----------------------------------------------------
E|-----------------------------------------------------



e|-----------------------------------------------------
b|--12-13-12-13-12-8--12-13-12-13-12-10-10\-8/10-------
g|-----------------------------------------------------
D|-----------------------------------------------------
A|-----------------------------------------------------
E|-----------------------------------------------------
Song lyrics here 
E|--
B|--
G|--
D|--
A|--
E|--

Song lyrics here 
E|--
B|--
G|--
D|--
A|--
E|--

Use manual mode to free up cursor. Paste any tab in acousterr tab maker and we'll play it !!!
tabs and chords, guitar tabs, music transcription, music technology, deep learning, music information retrieval, transcribe into tabs & chords, chordify, music renditions, songsterr, reverbnation, tabulature, bollywood chords, ultimate guitar, yousician, guitar lessons, acoustic guitar, electric guitar, guitar tuner, 911 tabs