Guitar Tabs for Havana - Camila Cabello

(/) Slide Up  (\) Slide Down  (h) Hammer On  (p) Pull Off  (b) Bend (r) Release (v) Vibrato (x) Muted

Tabs for Song : Havana By Camilia Cabello 


E|-----------------------------------------------------------------------------------------
B|-----3-----------------------1--------4--3--------3-----------------------1--------4-----
G|--0--------------3--------2--------2--------0-----------------3--------2--------2-----3--
D|--------0--1--1-----0--------------------------------0--1--1-----0-----------------------
A|-----------------------------------------------------------------------------------------
E|-----------------------------------------------------------------------------------------

E|-----------------------------------------------------------------------------------------
B|--3--3-----------------3--1--3--4--3--1-----3--3-----------------3--1--3--4--3--1--------
G|--------3--3--0--------------------------3--------3--3--0--------------------------3-----
D|-----------------------------------------------------------------------------------------
A|-----------------------------------------------------------------------------------------
E|-----------------------------------------------------------------------------------------

E|--------------------------------------------------------------------------------------------
B|--3--3-----------------3--1--3--4--3--1-----3--------3--1--3--1-----3-----------------------
G|--------3--3--0--------------------------3-----3-----------------3-----2-----3--2--3--2--3--
D|--------------------------------------------------------------------------------------------
A|--------------------------------------------------------------------------------------------
E|--------------------------------------------------------------------------------------------

E|--3--3--3-----------------------------------------------3--3--3-----------------------
B|-----------3--3--3--4--3--1--3--------3--1--3--1-----------------3--3--3--4--3--1--3--
G|--------------------------------------------------0-----------------------------------
D|--------------------------------------------------------------------------------------
A|--------------------------------------------------------------------------------------
E|--------------------------------------------------------------------------------------

E|--------------------------3--3--3--3--5--6--5--3--5-----------------------
B|--------3--1--3--1-----------------------------------------3--1--3--1-----
G|--------------------0--------------------------------------------------0--
D|--------------------------------------------------------------------------
A|--------------------------------------------------------------------------
E|--------------------------------------------------------------------------

E|--3--3--3-----------------------------------------1--3-----1--3--10-8--6--
B|-----------3--3--4--3--1--3-----3--1--3-----------------------------------
G|-----------------------------------------0--0-----------------------------
D|--------------------------------------------------------------------------
A|--------------------------------------------------------------------------
E|--------------------------------------------------------------------------

E|--8--5-----1--1--1--1--1--3--------------------------------3--3--3--3--3--1--3-----1--3--10-8--
B|-----------------------------3-----3--1--3--1-----3--------------------------------------------
G|-----------------------------------------------3-----2-----------------------------------------
D|-----------------------------------------------------------------------------------------------
A|-----------------------------------------------------------------------------------------------
E|-----------------------------------------------------------------------------------------------

E|--8--5-----1--1--1--1--1--3--------3--------6--5-----3--3--3--3--3--3--------------------
B|-----------------------------3--------3--3--------------------------------3--3-----------
G|-----------------------------------------------------------------------3--------3--3--0--
D|-----------------------------------------------------------------------------------------
A|-----------------------------------------------------------------------------------------
E|-----------------------------------------------------------------------------------------

E|-----------------------------------------------------------------------------------
B|-----3--1--3--4--3--1-----3--3-----------------3--1--3--4--3--1-----3--3-----------
G|-----------------------3--------3--3--0--------------------------3--------3--3--0--
D|-----------------------------------------------------------------------------------
A|-----------------------------------------------------------------------------------
E|-----------------------------------------------------------------------------------

E|-----------------------------------------------------------------------------------------------
B|-----3--1--3--4--3--1-----3--------3--1--3--1-----3--------------------------------------------
G|-----------------------3-----3-----------------3-----2-----3--2--3--2--3--0-----2-----3--2--3--
D|-----------------------------------------------------------------------------------3-----------
A|-----------------------------------------------------------------------------------------------
E|-----------------------------------------------------------------------------------------------

E|--------------------------1--------------------------------1--1--------------
B|--3--------------------------3--1-----1-----1--------------------3--1--3--1--
G|-----3--2--2--0-----3--------------3-----3-----3--0-----3--------------------
D|-----------------------------------------------------------------------------
A|-----------------------------------------------------------------------------
E|-----------------------------------------------------------------------------

E|--------------------------------------------------------------1--1--1--1-----
B|-----------------------------------3-----------------------------------------
G|--3--3--3--3--0--------3-----3--3-----3--3--3--0--3--0-----0--------------3--
D|-----------------------------------------------------------------------------
A|-----------------------------------------------------------------------------
E|-----------------------------------------------------------------------------

E|--1--1--1--1--------------1--1--1--1--------1--1--1--1--------------------------------
B|--------------1--1--4--3--------------------------------1--1--4--3-----------3--1--1--
G|-----------------------------------------3--------------------------3--0--0-----------
D|--------------------------------------------------------------------------------------
A|--------------------------------------------------------------------------------------
E|--------------------------------------------------------------------------------------

E|--------------------------------------------------------------------------------
B|-----------3--1--1--------------3--1--1--------------3--1--1-----3--3-----------
G|--3--0--0--------------3--0--0--------------3--0--0-----------3--------3--3--0--
D|--------------------------------------------------------------------------------
A|--------------------------------------------------------------------------------
E|--------------------------------------------------------------------------------

E|--------------------------------------------------------------------------------
B|--3--1--3--4--3--1-----3--3-----------------3--1--3--4--3--1-----3--3-----------
G|--------------------3--------3--3--0--------------------------3--------3--3--0--
D|--------------------------------------------------------------------------------
A|--------------------------------------------------------------------------------
E|--------------------------------------------------------------------------------

E|-----------------------------------------------------------------1--------------------
B|--3--1--3--4--3--1-----3-----3--1--3--1-----3-----------------------4--3--------------
G|--------------------3-----3--------------3-----2--3--2--3--2--3--------------3--3--3--
D|--------------------------------------------------------------------------------------
A|--------------------------------------------------------------------------------------
E|--------------------------------------------------------------------------------------

E|--------------------------1--1--3--1--------------------------------------1--------------------
B|--------1-----1--1--1-----------------3-----------------1-----1--1--1--3-----4--3-----3--3--3--
G|--2--------3-----------3-----------------3--3--3--2--------3-----------------------------------
D|-----------------------------------------------------------------------------------------------
A|-----------------------------------------------------------------------------------------------
E|-----------------------------------------------------------------------------------------------

E|--------------------------1--1--3--1--------------------------------------------------------
B|--------1-----1--1--1--3--------------3-----------------1-----1--1--1--------------3--1-----
G|--2--------3-----------------------------3--3--3--2--------3-----------0--------0--------3--
D|-----------------------------------------------------------------------------3--------------
A|--------------------------------------------------------------------------------------------
E|--------------------------------------------------------------------------------------------

E|--------------------------------------------------------
B|--1-----------------------------3--1-----1--------------
G|-----2--------------0--------0--------3-----2-----------
D|--------------0--3--------3-----------------------0--3--
A|--------------------------------------------------------
E|--------------------------------------------------------

E|--------------------------------------------------------------------------------
B|-----------3--1-----1-----------------3--3-----------------3--1--3--4--3--1-----
G|--0-----0--------3-----2-----------3--------3--3--0--------------------------3--
D|-----3--------------------4-----------------------------------------------------
A|--------------------------------------------------------------------------------
E|--------------------------------------------------------------------------------

E|-----------------------------------------------------------------------------------
B|--3--3-----------------3--1--3--4--3--1-----3--3--------------3--1--3--4--3--1-----
G|--------2--2--0--------------------------3--------3--3--0-----------------------3--
D|-----------------------------------------------------------------------------------
A|-----------------------------------------------------------------------------------
E|-----------------------------------------------------------------------------------

E|-----------------------------------------------------------------------------------------
B|--3--------3--1--3--1-----3--------------------------------3--1-----1--------------------
G|-----3-----------------3-----2--3--2--3--2--3--0--------0--------3-----2-----------0-----
D|-----------------------------------------------------3-----------------------0--3--------
A|-----------------------------------------------------------------------------------------
E|-----------------------------------------------------------------------------------------

E|-----------------------------------------------------------------
B|--------3--1-----1--------------------------------3--1-----1-----
G|-----0--------3-----2--------------0-----------0--------3-----2--
D|--3--------------------4--------------------3--------------------
A|-----------------------------------------------------------------
E|-----------------------------------------------------------------

E|-----------6-----5--3--5-----------------------------------
B|--------3-----------------3--1-----------------------------
G|--------------------------------3--2-----3--2--3--2--3--0--
D|-----------------------------------------------------------
A|-----------------------------------------------------------
E|-----------------------------------------------------------

Paste any tab in acousterr's tab maker and we'll play it !!!
Now supports capo and sound effects for vibrato/pull-off/hammer/bends/mutes etc !!! Checkout help section
tabs and chords, guitar tabs, music contests, music covers, songsterr, reverbnation, renditions, tabulature, bollywood chords, ultimate guitar, yousician, guitar lessons, torrins, fender, gibson, acoustic guitar, electric guitar, youtube covers, gootar, guitar tuner, A-Z tabs, 911 tabs