Guitar Tabs for Camila Cabello - Havana

(piano part arranged for classical guitar,
maintaining the original key so you can play along with the song)

E|--------------------------------------------------
B|--------3--3--------------------------------4--3--
G|--------3-----------3-----------5-----------------
D|--5-----------------5--------4-----------4--------
A|--------------6--6-----5--------------------------
E|--------------------------------------------------

E|--------------------------------------------------
B|--------3--3--------3-----------------------3-----
G|--------3-----------------------5-----------------
D|--5-----------------5--------4-----------4--------
A|--------------6--6-----5--------------------------
E|--------------------------------------------------


tabs and chords, guitar tabs, music contests, music covers, songsterr, reverbnation, renditions, tabulature, bollywood chords, ultimate guitar, yousician, guitar lessons, torrins, fender, gibson, acoustic guitar, electric guitar, youtube covers, gootar, guitar tuner, A-Z tabs, 911 tabs