Guitar Tabs for School Of Rock- Somebody To You (part 3)

(/) Slide Up  (\) Slide Down  (h) Hammer On  (p) Pull Off  (b) Bend (r) Release (v) Vibrato (x) Muted

Tabs & Chords
BPM : 117.0
Check Track 2 for Chord Positions 

    E     B                          C#m                     A                 E              
E|-----------------------------4-----7--7-----4--------0--0--------------7-----7-----------0--
B|--0-----4--0--0--0-----4--7--------------------------------7-----7-----------------7--7-----
G|-----------------------------------------------6--------------------------------------------
D|--------------------------------------------------------------------------------------------
A|--------------------------------------------------------------------------------------------
E|--------------------------------------------------------------------------------------------

          B                                   A        C#m            A              E        
E|--0--------------------0--------------------7--7-----------0--------------0--0-----------0--
B|--------7-----0--------------0--0-----0--------------7--------------------------------------
G|-----------------------------------------------------------------------------------0--------
D|--------------------------------------------------------------------------------------------
A|--------------------7-----------------------------------------------------------------------
E|--------------------------------------------------------------7-----7-----------------------

                         B                       C#m                     A                 E  
E|--0-----5--------0-----------------------------7-----16----0--0--0-----------0--------------
B|-----------7-----------0--0--0-----0-----------------------------------7--------------------
G|--------------------------------------------------------------------------------------------
D|--------------------------------------------------------------------------------------------
A|-----------------------------------------------------------------------------------0--------
E|--------------------------------------7--7--------------------------------------7--------7--

Guitar Tabs for School Of Rock- Somebody To You (part 3)






    E     B                          C#m                     A                 E              
E|--0-----2--------------------------4-----------------------0-----------------0--------------
B|--0-----4--------------------------5-----------------------2-----------------0--------------
G|--1-----4--------------------------6-----------------------2-----------------1--------------
D|--2-----4--------------------------6-----------------------2-----------------2--------------
A|--2-----2--------------------------4-----------------------0-----------------2--------------
E|--0--------------------------------------------------------------------------0--------------

          B                                   A        C#m            A              E        
E|--------2-----------------------------------0--------4--------------0--------------0--------
B|--------4-----------------------------------2--------5--------------2--------------0--------
G|--------4-----------------------------------2--------6--------------2--------------1--------
D|--------4-----------------------------------2--------6--------------2--------------2--------
A|--------2-----------------------------------0--------4--------------0--------------2--------
E|-----------------------------------------------------------------------------------0--------

                         B                       C#m                     A                 E  
E|-----------------------2-----------------------4-----------------------0-----------------0--
B|-----------------------4-----------------------5-----------------------2-----------------0--
G|-----------------------4-----------------------6-----------------------2-----------------1--
D|-----------------------4-----------------------6-----------------------2-----------------2--
A|-----------------------2-----------------------4-----------------------0-----------------2--
E|-----------------------------------------------------------------------------------------0--

tabs and chords, guitar tabs, music transcription, music technology, deep learning, music information retrieval, transcribe into tabs & chords, chordify, music renditions, songsterr, reverbnation, tabulature, bollywood chords, ultimate guitar, yousician, guitar lessons, acoustic guitar, electric guitar, guitar tuner, 911 tabs