Guitar Tabs for School Of Rock- Somebody To You (part 1)

(/) Slide Up  (\) Slide Down  (h) Hammer On  (p) Pull Off  (b) Bend (r) Release (v) Vibrato (x) Muted

Tabs & Chords
BPM : 187.0
Check Track 2 for Chord Positions 

                                                                                                 
E|--2-----0-----------------------------------2--2--0-----3-----0--------------------------------
B|--------------3-----4--2-----0-----2--2--------------4-----------------------------------------
G|--------------------------------5--------------------------------------------------------------
D|-----------------------------------------------------------------------------------------------
A|--------------------------------------------------------------------4-----2-----2-----2-----2--
E|-----------------------------------------------------------------------------------------------

                   E                                                                             
E|-----------------------------------------------------------3--------0--0-----3--5--4--4-----0--
B|--------------------------------2--------------------------------4-----------------------------
G|-----------------------------------------------------------------------------------------------
D|-----------------------------------------------------------------------------------------------
A|-----2-----2-----2-----2-----2-----2-----2-----2-----2-----------------------------------------
E|-----------------------------------------------------------------------------------------------

                         C#m                                       A                          
E|--2--4-----5-----4-----5-----0-----2--2-----2--2-----2--4--------2-----2-----2--4-----2--0--
B|-----------------------------------------------------------2--------------------------------
G|--------------------------------------------------------------------------------------------
D|--------------------------------------------------------------------------------------------
A|--------------------------------------------------------------------------------------------
E|--------------------------------------------------------------------------------------------

                E           A        E                    
E|--0-----0-----------------3--5-----4-----0--0--2--4-----
B|--------------0-----4--------------------------------6--
G|--------------------------------------------------------
D|--------------------------------------------------------
A|--------------------------------------------------------
E|--------------------------------------------------------

Guitar Tabs for School Of Rock- Somebody To You (part 1)






                                                                                                 
E|-----------------------------------------------------------------------------------------------
B|-----------------------------------------------------------------------------------------------
G|-----------------------------------------------------------------------------------------------
D|-----------------------------------------------------------------------------------------------
A|-----------------------------------------------------------------------------------------------
E|-----------------------------------------------------------------------------------------------

                   E                                                                             
E|-----------------0-----------------------------------------------------------------------------
B|-----------------0-----------------------------------------------------------------------------
G|-----------------1-----------------------------------------------------------------------------
D|-----------------2-----------------------------------------------------------------------------
A|-----------------2-----------------------------------------------------------------------------
E|-----------------0-----------------------------------------------------------------------------

                         C#m                                       A                          
E|-----------------------4-----------------------------------------0--------------------------
B|-----------------------5-----------------------------------------2--------------------------
G|-----------------------6-----------------------------------------2--------------------------
D|-----------------------6-----------------------------------------2--------------------------
A|-----------------------4-----------------------------------------0--------------------------
E|--------------------------------------------------------------------------------------------

                E           A        E                    
E|--------------0-----------0--------0--------------------
B|--------------0-----------2--------0--------------------
G|--------------1-----------2--------1--------------------
D|--------------2-----------2--------2--------------------
A|--------------2-----------0--------2--------------------
E|--------------0--------------------0--------------------

tabs and chords, guitar tabs, music transcription, music technology, deep learning, music information retrieval, transcribe into tabs & chords, chordify, music renditions, songsterr, reverbnation, tabulature, bollywood chords, ultimate guitar, yousician, guitar lessons, acoustic guitar, electric guitar, guitar tuner, 911 tabs