Guitar Tabs for School Of Rock- Somebody To You (part 4)

(/) Slide Up  (\) Slide Down  (h) Hammer On  (p) Pull Off  (b) Bend (r) Release (v) Vibrato (x) Muted

Tabs & Chords
BPM : 110.0
Check Track 2 for Chord Positions 

    E           A                       G  D           Bm    
E|-----------4--9--9-----7-----------------------------------
B|--------------------------------------------------------4--
G|-----------------------------------------------------7-----
D|--------6--------------------------------------0-----------
A|-----------------------------------------------------------
E|--7--------------------------3--3-----7--7-----------------

Guitar Tabs for School Of Rock- Somebody To You (part 4)






    E           A                       G  D           Bm    
E|--0-----------0-----------------------3--2-----------2-----
B|--0-----------2-----------------------3--3-----------3-----
G|--1-----------2-----------------------4--2-----------4-----
D|--2-----------2-----------------------5--0-----------4-----
A|--2-----------0-----------------------5--------------2-----
E|--0-----------------------------------3--------------------

tabs and chords, guitar tabs, music transcription, music technology, deep learning, music information retrieval, transcribe into tabs & chords, chordify, music renditions, songsterr, reverbnation, tabulature, bollywood chords, ultimate guitar, yousician, guitar lessons, acoustic guitar, electric guitar, guitar tuner, 911 tabs