Guitar Tabs for School Of Rock- Somebody To You (part 2)

(/) Slide Up  (\) Slide Down  (h) Hammer On  (p) Pull Off  (b) Bend (r) Release (v) Vibrato (x) Muted

Tabs & Chords
BPM : 89.0
Check Track 2 for Chord Positions 

    A  E        B                                A                          E                 
E|--5--4--4-----------------------------4--0-----------------4--0--0--------7-----5--0--------
B|--------------0-----7--7--7--7--7--7-----------7--7--7--7-----------8--------7--------7--7--
G|--------------------------------------------------------------------------------------------
D|--------------------------------------------------------------------------------------------
A|--------------------------------------------------------------------------------------------
E|-----------------7--------------------------------------------------------------------------

          B                 C#m                  A              E                       B        
E|--4-----4--------------------------0-----4-----0--------0-----------------------0--0-----------
B|-----------7--------------------7-----8-----------------------0--0--0-----0--0--------7-----7--
G|-----------------------------6--------------------6--------------------------------------------
D|--------------4-----4-----6--------------------------------------------------------------------
A|-----------------------------------------------------------------------------------------------
E|-----------------------------------------------------------------------------------------------

                C#m                     A                          E                          
E|--------5-----7--------------0--0--0-----------------0--0-----------7--7--7--------0--------
B|--7-----------------------7-----------------------------------------------------7-----0-----
G|-----------------6-----6--------------------------7-----------------------------------------
D|--------------------------------------------7--------------------6--------------------------
A|--------------------------------------------------------------------------------------------
E|--------------------------------------7--------------------7-----------------------------7--

Guitar Tabs for School Of Rock- Somebody To You (part 2)






    A  E        B                                A                          E                 
E|--0--0--------2--------------------------------0--------------------------0-----------------
B|--2--0--------4--------------------------------2--------------------------0-----------------
G|--2--1--------4--------------------------------2--------------------------1-----------------
D|--2--2--------4--------------------------------2--------------------------2-----------------
A|--0--2--------2--------------------------------0--------------------------2-----------------
E|-----0--------------------------------------------------------------------0-----------------

          B                 C#m                  A              E                       B        
E|--------2-----------------4--------------------0--------------0-----------------------2--------
B|--------4-----------------5--------------------2--------------0-----------------------4--------
G|--------4-----------------6--------------------2--------------1-----------------------4--------
D|--------4-----------------6--------------------2--------------2-----------------------4--------
A|--------2-----------------4--------------------0--------------2-----------------------2--------
E|--------------------------------------------------------------0--------------------------------

                C#m                     A                          E                          
E|--------------4-----------------------0--------------------------0--------------------------
B|--------------5-----------------------2--------------------------0--------------------------
G|--------------6-----------------------2--------------------------1--------------------------
D|--------------6-----------------------2--------------------------2--------------------------
A|--------------4-----------------------0--------------------------2--------------------------
E|-----------------------------------------------------------------0--------------------------

tabs and chords, guitar tabs, music transcription, music technology, deep learning, music information retrieval, transcribe into tabs & chords, chordify, music renditions, songsterr, reverbnation, tabulature, bollywood chords, ultimate guitar, yousician, guitar lessons, acoustic guitar, electric guitar, guitar tuner, 911 tabs