Guitar Tabs for Saki Saki

Intro
E|--------------------------------------------------------------------------------------
B|--------------------------------------------------------------------------------------
G|--------------------3--------------------------------------3--------3-----------------
D|-----3-----1--3--4-----3-----1--3--4--1-----3-----1--3--4-----3--------3--4--1--3-----
A|--------------------------------------------------------------------------------------
E|--------------------------------------------------------------------------------------

Main teri ankho ka saahil
E|--------------------------------6--
B|---4/6--6--6-----6-----4--6--7-----
G|-----------------------------------
D|-----------------------------------
A|-----------------------------------
E|-----------------------------------

Main tere dil ke hi kaabil
E|--------------------------------6--
B|--6-----6--6-----6-----4--6--7-----
G|-----------------------------------
D|-----------------------------------
A|-----------------------------------
E|-----------------------------------

Tu musafir main teri manzil
E|--------------------------------6--------6--------------
B|--6-----6--6-----6-----4--6--7-----6--------6--7--4-----
G|--------------------------------------------------------
D|--------------------------------------------------------
A|--------------------------------------------------------
E|--------------------------------------------------------

Wo sharabi kya sharabi
Dil me jiske gum na ho
E|-----5--5--5--5--6--8--8--8---9/11-11-11-9---9/11-9--8-----
B|-----------------------------------------------------------
G|-----------------------------------------------------------
D|-----------------------------------------------------------
A|-----------------------------------------------------------
E|-----------------------------------------------------------

Lut gaya samjho sharabi
E|-----11/13-13-13-11----9-----8---8h-9p8--------
B|-----------------------------------------11----
G|-----------------------------------------------
D|-----------------------------------------------
A|-----------------------------------------------
E|-----------------------------------------------

Paas jiske hum na ho
E|-----------------------------------
B|---8/10-10-10-11/13-11----10-11----
G|-----------------------------------
D|-----------------------------------
A|-----------------------------------
E|-----------------------------------

O saki saki re saki saki
E|--------------------------------------------------------------
B|--6--7--6---7/11-10/13-11/14----13-11-10h11----10h11p10-6-----
G|--------------------------------------------------------------
D|--------------------------------------------------------------
A|--------------------------------------------------------------
E|--------------------------------------------------------------

Aa paas aa reh na jaye koi khwahish baaki
E|--------------------------------------------------------------
B|---4/7--7--7---7\4--4--4--4---4\1--1--2---2/7--6-----6--6-----
G|--------------------------------------------------------------
D|--------------------------------------------------------------
A|--------------------------------------------------------------
E|--------------------------------------------------------------
tabs and chords, guitar tabs, music transcription, music technology, deep learning, music information retrieval, transcribe into tabs & chords, chordify, music renditions, songsterr, reverbnation, tabulature, bollywood chords, ultimate guitar, yousician, guitar lessons, acoustic guitar, electric guitar, guitar tuner, 911 tabs