Guitar Tabs for Saibo

(/) Slide Up  (\) Slide Down  (h) Hammer On  (p) Pull Off  (b) Bend (r) Release (v) Vibrato (x) Muted

Tabs for Song : 
BPM : 100

Song lyrics here 
E|--0-----------0--------
B|-----3-----------3-----
G|--------2-----------2--
D|-----------------------
A|-----------------------
E|-----------------------

BPM : 200


E|-----5--5--5--7--------5--5--5--5--7-----5--5--5--5--7--5-----------
B|--7-----------------7--------------------------------------7--5-----
G|--------------------------------------------------------------------
D|--------------------------------------------------------------------
A|--------------------------------------------------------------------
E|--------------------------------------------------------------------

   Mann yeh sahib ji Jane hai sab ji     Phir bhi banaye bahane
   
   
E|-----5--5--5--7--------5--5--5--5--7-----5--5--5--5--7--5-----------
B|--7-----------------7--------------------------------------7--5-----
G|--------------------------------------------------------------------
D|--------------------------------------------------------------------
A|--------------------------------------------------------------------
E|--------------------------------------------------------------------

   Naina nawabi ji  Dekhe hai sab ji      Phir bhi na samjhe ishare
   

E|-----5--5-----5--5-----5-----5--5--5--5--7-----
B|--7--------7--------------7--------------------
G|-----------------------------------------------
D|-----------------------------------------------
A|-----------------------------------------------
E|-----------------------------------------------

   Mann yeh sahib ji  Haan karta bahane  
   
 
 
E|-----5--5-----5--5-----5--5--7--------------
B|--7--------7--------------------7--5--5-----
G|--------------------------------------------
D|--------------------------------------------
A|--------------------------------------------
E|--------------------------------------------

   Naina nawabi ji       Na samjhe ishare
   
   
   
   
E|--------------------5-----------------------5--------------------------------------
B|--5-----5--7-----7-----7--5-----5--7-----7-----7--5--------5-----5--5--7-----------
G|-----7-----------------------7-----------------------7--4-----------------7--4-----
D|-----------------------------------------------------------------------------------
A|-----------------------------------------------------------------------------------
E|-----------------------------------------------------------------------------------

   Dheere dheere  Naino ko dheere dheere  Jiya ko dheere dheere   Bhayo re saibo
   
   Dheere dheere  Begana dheere dheere   Apna sa dheere dheere    Lage re saibo
   

   
E|--------------------------------------------------------------
B|--5--5--------------5-----------------------7--8--7-----------
G|--------7-----7--6-----7--7-----------7--9-----------7--9-----
D|--------------------------------7--9--------------------------
A|--------------------------------------------------------------
E|--------------------------------------------------------------

   M: Surkhiyan hai hawaon mein     F: Do dilon ke milne ki



E|-----------------------------------------------------------------
B|--------5-----------------5-----------------------10-7-----------
G|--7--6-----7--7-----7--6-----7--7-----------7--9--------7--9-----
D|--------------------------------------7--9-----------------------
A|-----------------------------------------------------------------
E|-----------------------------------------------------------------

    M: Ha haan arziya   hai  nazaron mein  F: Lamha yeh tham jane   ki

    

E|-----5--5--5--5--5--7--------5--5--5--5--7-----5--5--5--5--5--7-----5--5--5--7--------
B|--7-----------------------7-----------------------------------------------------7--5--
G|--------------------------------------------------------------------------------------
D|--------------------------------------------------------------------------------------
A|--------------------------------------------------------------------------------------
E|--------------------------------------------------------------------------------------


    F: O kaise hazuri ji   Yeh lab dikhaye     Chupi laga ke bhi     Gazab hai yeh dhaaye

   
   
   
   
   
   
   
   
   
   
   
Use manual mode to free up cursor. Paste any tab in acousterr tab maker and we'll play it !!!































tabs and chords, guitar tabs, music transcription, music technology, deep learning, music information retrieval, transcribe into tabs & chords, chordify, music renditions, songsterr, reverbnation, tabulature, bollywood chords, ultimate guitar, yousician, guitar lessons, acoustic guitar, electric guitar, guitar tuner, 911 tabs