Guitar Tabs for Tera Mera Pyaar Intro - Kumar Sanu

Intro Tabs for Tera Mera Pyaar - Kumar Saanu

capo at 4th fret

 Aminor chord shape
E|--------------------------------------------------------------
B|-----------1--0--1--------0-----------------------------0-----
G|--------2--------------------------------------4--------------
D|-----2--------------0--0-----0-----2--2--5--4--------------0--
A|--0-----------------------------0-----------------2--2--------
E|--------------------------------------------------------------

E|--------------------------------------------------------------
B|-----------1--0--1--------0-----------------------------0-----
G|--------2--------------------------------------4--------------
D|-----2--------------0--0-----0-----2--2--5--4--------------0--
A|--0-----------------------------0-----------------2--2--------
E|--------------------------------------------------------------


E|--------------------2--3--2-----------------------2--3--2-----
B|-----------1--0--1-----------0-----------------------------0--
G|--------2--------------------------------------4--------------
D|-----2--------------------------0--2--2--5--4-----------------
A|--0-----------------------------------------------------------
E|--------------------------------------------------------------

E|--------------------2--3--2-----0--
B|-----------1--0--1--------------0--
G|--------2-----------------------0--
D|-----2-----------------------0--2--
A|--0-----------------------------2--
E|--------------------------------0--

tabs and chords, guitar tabs, music contests, music covers, songsterr, reverbnation, renditions, tabulature, bollywood chords, ultimate guitar, yousician, guitar lessons, torrins, fender, gibson, acoustic guitar, electric guitar, youtube covers, gootar, guitar tuner, A-Z tabs, 911 tabs