Guitar Tabs for Rim Jhim Gire Sawan

Rim jhim gire...
E|-----------------9--------------------------------------------------------------------
B|-----------7--9-----9--------9------9/10-9--7---9/10-9--7-----7-----7---7\6---6/7-----
G|--6--8--9-----------------------------------------------------------------------------
D|--------------------------------------------------------------------------------------
A|--------------------------------------------------------------------------------------
E|--------------------------------------------------------------------------------------

bheege aaj...
E|-----------------------------------------
B|--4--7---7/12-12-12----12-11-12-11-12----
G|-----------------------------------------
D|-----------------------------------------
A|-----------------------------------------
E|-----------------------------------------

lagi kaisi...
E|-----4--7---7/12-11-9-----8--9--------9--------
B|--------------------------------9--10----9-----
G|-----------------------------------------------
D|-----------------------------------------------
A|-----------------------------------------------
E|-----------------------------------------------

Rim jhim gire...
E|-----------------9-----------------------------------------------------------------------
B|-----------7--9-----9--------9------9/10-9--7---9/12-10-9-----7-----7------7\6---6/7-----
G|--6--8--9--------------------------------------------------------------------------------
D|-----------------------------------------------------------------------------------------
A|-----------------------------------------------------------------------------------------
E|-----------------------------------------------------------------------------------------

bheege aaj...
E|-----------------------------------------
B|--4--7---7/12-12-12----12-11-12-11-12----
G|-----------------------------------------
D|-----------------------------------------
A|-----------------------------------------
E|-----------------------------------------

lagi kaisi...
E|--4--7---7/12-11-9--8--9--------9--------
B|--------------------------9--10----9-----
G|-----------------------------------------
D|-----------------------------------------
A|-----------------------------------------
E|-----------------------------------------

jab ghunguruyo si...
E|--9--8--9--9---9/11----------9--9--8--8---8h-9p-8/11----11----
B|-----------------------9--------------------------------------
G|--------------------------------------------------------------
D|--------------------------------------------------------------
A|--------------------------------------------------------------
E|--------------------------------------------------------------

armaan humare...
E|--11-14-11\9--------------------------------------------------
B|--------------9--9---9h10p9---------7/10-10-10-10/14----14----
G|-----------------------------11-------------------------------
D|--------------------------------------------------------------
A|--------------------------------------------------------------
E|--------------------------------------------------------------
tabs and chords, guitar tabs, music transcription, music technology, deep learning, music information retrieval, transcribe into tabs & chords, chordify, music renditions, songsterr, reverbnation, tabulature, bollywood chords, ultimate guitar, yousician, guitar lessons, acoustic guitar, electric guitar, guitar tuner, 911 tabs