Guitar Tabs for Sawan aaya hai

Tabs for Song : Sawan aaya hai

mohabbat barsa de na tu
E|--------------------------------------------
B|--------1--2--------1--2--1-----1-----------
G|--3--3--------3--3-----------3-----3--1-----
D|--------------------------------------------
A|--------------------------------------------
E|--------------------------------------------

sawan aaya hai
E|-----------------------------
B|--------1--1-----------------
G|--1--3-----------1-----------
D|--------------4-----4--3-----
A|-----------------------------
E|-----------------------------

tere aur mere milne ka
E|--------------------------------------------
B|--------1--2--------1--2--1-----1-----------
G|--3--3--------3--3-----------3-----3--1-----
D|--------------------------------------------
A|--------------------------------------------
E|--------------------------------------------
 
mausam aaya hai
E|-----------------------------
B|--------1--1-----------------
G|--1--3-----------1-----------
D|--------------4-----4--3-----
A|-----------------------------
E|-----------------------------

sabse chupa ke tujhe seene se lagana hai
E|-----------1-----------------------1--------------
B|-----2--2-----4--4--4--------2--2-----4--4--4-----
G|--3--------------------3--3-----------------------
D|--------------------------------------------------
A|--------------------------------------------------
E|--------------------------------------------------

pyaar mein tere hadd se guzar jana hai
E|-----------1-----------------------1--------------
B|-----2--2-----4--4--4--------2--2-----4--4--4-----
G|--3--------------------3--3-----------------------
D|--------------------------------------------------
A|--------------------------------------------------
E|--------------------------------------------------

itna pyaar kisi pe pahli baar aaya hai
E|--2--2--2--2--2--2--------------------1--1--------------
B|--------------------1-----1--1--2--1--------1--1--------
G|--------------------------------------------------3-----
D|--------------------------------------------------------
A|--------------------------------------------------------
E|--------------------------------------------------------

mohabbat barsa de na tu
E|--------------------------------------------
B|--------1--2--------1--2--1-----1-----------
G|--3--3--------3--3-----------3-----3--1-----
D|--------------------------------------------
A|--------------------------------------------
E|--------------------------------------------

sawan aaya hai
E|-----------------------------
B|--------1--1-----------------
G|--3--3-----------1-----------
D|--------------4-----4--3-----
A|-----------------------------
E|-----------------------------

tere aur mere milne ka
E|--------------------------------------------
B|--------1--2--------1--2--1-----1-----------
G|--3--3--------3--3-----------3-----3--1-----
D|--------------------------------------------
A|--------------------------------------------
E|--------------------------------------------

mausam aaya hai
E|-----------------------------
B|--------1--1-----------------
G|--3--3-----------1-----------
D|--------------4-----4--3-----
A|-----------------------------
E|-----------------------------

kyn ek pal ki bhi judai sahi jayein na
E|---3/5-----3--1--0--0-----1--0--------------1--0--0--0-----
B|--------------------------------3--3-----3-----------------
G|-----------------------------------------------------------
D|-----------------------------------------------------------
A|-----------------------------------------------------------
E|-----------------------------------------------------------

kyn har subh tu meri saanso mein samayein na
E|---3/5-----3--1--0--0-----1--0--------------1--0--0--0-----
B|--------------------------------3--3-----3-----------------
G|-----------------------------------------------------------
D|-----------------------------------------------------------
A|-----------------------------------------------------------
E|-----------------------------------------------------------

aaja na tu mere pass dunga itna pyaar mein
E|-----0--1--5--3--3--3-----0--3--0--------------0--0-----
B|--3--------------------------------3-----1--3-----------
G|--------------------------------------------------------
D|--------------------------------------------------------
A|--------------------------------------------------------
E|--------------------------------------------------------

kitni raat guzari hai tere intzaar mein
E|--1--1--1-----0-----0--------------------------------------
B|-----------3-----------3--1--1-----------1-----------------
G|-----------------------------------3--3-----3--2--2--2-----
D|-----------------------------------------------------------
A|-----------------------------------------------------------
E|-----------------------------------------------------------

kese batau jazbaat ye mere
E|-----0-----0--0--0-----0--0--1--3--1--0-----------
B|-----------------------------------------3--3-----
G|--2-----------------------------------------------
D|--------------------------------------------------
A|--------------------------------------------------
E|--------------------------------------------------

mene khud se bhi jyda tujhe chaaha hai
E|-----0--1--1-----------------------------------
B|--3-----------3--1--1--------1--3--1-----------
G|-----------------------3--3-----------3--2-----
D|-----------------------------------------------
A|-----------------------------------------------
E|-----------------------------------------------

sab kuch chorr ke aana tu
E|-----------------------------------------
B|--------1--2-----1--2--1-----1-----------
G|--3--3--------3-----------3-----3--1-----
D|-----------------------------------------
A|-----------------------------------------
E|-----------------------------------------

sawan aya hai
E|-----------------------------
B|--------1--1-----------------
G|--1--3-----------1-----------
D|--------------4-----4--3-----
A|-----------------------------
E|-----------------------------

tere aur mere milne ka 
E|-----------------------------------------
B|--------1--2-----1--2--1-----1-----------
G|--3--3--------3-----------3-----3--1-----
D|-----------------------------------------
A|-----------------------------------------
E|-----------------------------------------

mausam aaya hai
E|-----------------------------
B|--------1--1-----------------
G|--1--3-----------1-----------
D|--------------4-----4--3-----
A|-----------------------------
E|-----------------------------

sabse chupa ke tujhe seene se lagana hai
E|-----------1-----------------------1--------------
B|-----2--2-----4--4--4--------2--2-----4--4--4-----
G|--3--------------------3--3-----------------------
D|--------------------------------------------------
A|--------------------------------------------------
E|--------------------------------------------------

pyaar mein tere hadd se guzar jana hai
E|-----------1-----------------------1-----------------
B|-----2--2-----4--4--4--------2--2--------4--4--4-----
G|--3--------------------3--3--------------------------
D|-----------------------------------------------------
A|-----------------------------------------------------
E|-----------------------------------------------------

itna pyaar kisi pe pahli baar aaya hai
E|--2--2--2--2--2--2--------------------1--1--------------
B|--------------------1-----1--1--2--1--------1--1--------
G|--------------------------------------------------3-----
D|--------------------------------------------------------
A|--------------------------------------------------------
E|--------------------------------------------------------

tabs and chords, guitar tabs, music transcription, music technology, deep learning, music information retrieval, transcribe into tabs & chords, chordify, music renditions, songsterr, reverbnation, tabulature, bollywood chords, ultimate guitar, yousician, guitar lessons, acoustic guitar, electric guitar, guitar tuner, 911 tabs