Guitar Tabs for Rhcp

E|--------------------------------------------------------------------------------
B|--------0--1-----------------------0--1-----------------------0--1--------------
G|--------------------0--2-----------------------0--2-----------------------0--2--
D|-----2--------------------------2--------------------------2--------------------
A|--0--------------3-----------0--------------3-----------0--------------3--------
E|--------------1--------------------------1--------------------------1-----------

E|-----------------------------------------------1--
B|--------5--------------------------------------3--
G|--------------------4-----------2--------3-----2--
D|-----5-----5--------------------------0--------0--
A|--3--------------5-----5-----3-----3--------------
E|--------------3-----------1-----------------------

E|-----------------------------------------------------
B|--------0--1-----------------------0--1--------------
G|--------------------0--2-----------------------0--2--
D|-----2--------------------------2--------------------
A|--0--------------3-----------0--------------3--------
E|--------------1--------------------------1-----------

E|--------------------------------------------1--
B|--------5-----------------------------------3--
G|--------------------4-----------2--------3--2--
D|-----5-----5--------------------------0-----0--
A|--3--------------5-----5-----3-----3-----------
E|--------------3-----------1--------------------

E|--0--0--0--0-----0--0-----0--0--0----|---0--0--
B|--1--1--1--1-----1--1-----1--1--1----|---1--1--
G|--2--2--2--2-----2--2-----2--2--2----|---2--2--
D|--2--2--2--2-----2--2-----2--2--2----|---3--3--
A|--0--0--0--0-----0--0-----0--0--0----|---3--3rhc--
E|-------------------------------------|---------


-


tabs and chords, guitar tabs, music transcription, music technology, deep learning, music information retrieval, transcribe into tabs & chords, chordify, music renditions, songsterr, reverbnation, tabulature, bollywood chords, ultimate guitar, yousician, guitar lessons, acoustic guitar, electric guitar, guitar tuner, 911 tabs