Guitar Tabs for Quizás Porqué - Sui Generis

(/) Slide Up  (\) Slide Down  (h) Hammer On  (p) Pull Off  (b) Bend (r) Release (v) Vibrato (x) Muted

Tabs for Song : 
BPM : 74

[Pre-verso]
E|---------------3p2--
B|-----------3--------
G|--------2-----------
D|-----0--------------
A|--------------------
D|--0-----------------

[Verso 1]
Quizás porque no soy un buen poeta
Puedo pedirte que te quedes quieta
Hasta que yo termine estas palabras

[Repetir en próximo verso]
[Verso 2]
Quizás porque no soy un gran artista
Puedo decir tu pintura está lista
Y darte orgulloso este mamarracho
-----------------
[Verso 5]
Quizás porque no soy un buen soldado
Dejo que ataques de frente y costado
Cuando discutimos de nuestros proyectos
E|-----------------------------2-----2-----------------------------------
B|--------3-----3-----3--------2-----2-----3-----2-----1--1-----3-----2--
G|--------2-----2-----2--------2-----2-----4-----2-----0--0-----0-----0--
D|--------4-----4-----4--------------------------------------------------
A|-----------------------------------------2-----------3--2-----0-----0--
D|-----------------------------------------------4-----------------------

[Verso 3]
Quizás porque no soy de la nobleza
Puedo nombrarte mi reina y princesa
Y darte coronas de papel de cigarrillos
[Repetir en próximo verso]
[Verso 4]
Quizás porque soy un mal negociante
No pido nada a cambio de darte
Lo poco que tengo, mi vida y mis sueños
E|--3-----2-----------------3-----------------------------------------------
B|--0-----0--------2--------3--3-----2--------3-----3--------0-----3-----2--
G|--------------------------2--2-----3--------4-----4--------1-----0-----0--
D|-----------------2-----------0--------------------------------------------
A|-----------------0--------------------------2-----0--------------0-----0--
D|--5-----5--------------------------4-----------------------2--------------

[Final y outro]
Quizás porque no soy nada de eso
Es que estás aquí en mi lecho
E|--------------------------------------------------------------2---2h-3p2--------------x--
B|--3-----2-----3--------2-----3-----------------3v-------------3-----------------------x--
G|--2-----3-----4--------2-----1--------------0-----------------2-----------2-----------x--
D|--4--------------------------------------2--------------------0--------------0--------x--
A|--------------2--------0--------------0-----------------------------------------------x--
D|--------4--------------------2--------------------------------------------------0-----x--




tabs and chords, guitar tabs, music transcription, music technology, deep learning, music information retrieval, transcribe into tabs & chords, chordify, music renditions, songsterr, reverbnation, tabulature, bollywood chords, ultimate guitar, yousician, guitar lessons, acoustic guitar, electric guitar, guitar tuner, 911 tabs