Guitar Tabs for Queen Bohemian Rhapsody Tabs

(/) Slide Up  (\) Slide Down  (h) Hammer On  (p) Pull Off  (b) Bend (r) Release (v) Vibrato (x) Muted

Tabs for Song : Queen Bohemian Rhapsody Tabs

E|--------------3-----1-----------------3-----1-----
B|--3--------3--------------3--------3--------------
G|--------3-----------------------3-----------------
D|-----3-----------------------3--------------------
A|--------------------------------------------------
E|--------------------------------------------------

E|--------------------------------------
B|--3---1h3--------------1--3--3--------
G|-----------------3--------------------
D|--------------------------------------
A|--------------------------------------
E|--------------------------------------

E|--------------1--------------------------1--------------
B|--3--3-----4-----4--3--1-----1--3-----4-----4--3--1-----
G|--------------------------------------------------------
D|--------------------------------------------------------
A|--------------------------------------------------------
E|--------------------------------------------------------

E|-----------------1--5--3--3-----3-----
B|--3---1h3-----3-----------------------
G|--------------------------------------
D|--------------------------------------
A|--------------------------------------
E|--------------------------------------

E|--6--6--6--6--6--3-----------------
B|--------------------4--3-----1-----
G|-----------------------------------
D|-----------------------------------
A|-----------------------------------
E|-----------------------------------

E|--3---1h3--------1--3--4--3--------3--
B|--------------------------------------
G|--------------------------------------
D|--------------------------------------
A|--------------------------------------
E|--------------------------------------

E|--4--3--3--1--1-----------1--1--3--3--4--4--6--4-----
B|-----------------------------------------------------
G|--------------------3--3-----------------------------
D|-----------------------------------------------------
A|-----------------------------------------------------
E|-----------------------------------------------------

E|--3-----1--3--6-----1--3--------------------------------------
B|-----------------------------4-----------0--2--0--2--0--------
G|-----------------------------------3--3-----------------3-----
D|--------------------------------------------------------------
A|--------------------------------------------------------------
E|--------------------------------------------------------------

E|--------------------------------------------3-----1-----
B|--1--4-----4--------4-----4-----3--------3--------------
G|-----------------2--------------------3-----------------
D|-----------------------------------3--------------------
A|--------------------------------------------------------
E|--------------------------------------------------------

E|--------------3-----1-----
B|--3--------3--------------
G|--------3-----------------
D|-----3--------------------
A|--------------------------
E|--------------------------





Paste any tab in acousterr's tab maker and we'll play it !!!
Now supports capo and sound effects for vibrato/pull-off/hammer/bends/mutes etc !!! Checkout help section
tabs and chords, guitar tabs, music transcription, music technology, deep learning, music information retrieval, transcribe into tabs & chords, chordify, music renditions, songsterr, reverbnation, tabulature, bollywood chords, ultimate guitar, yousician, guitar lessons, acoustic guitar, electric guitar, guitar tuner, 911 tabs