Guitar Tabs for Queen - Bohemian Rhapsody (guitar Solos)

Queen - Bohemian Rhapsody (Guitar Solos)

1st Solo

1st Part
E|-----------------------------------------------------------------15-16-18-18b20-
B|--------------------11-8--11b13----13-15-16-13-15-16-16/18-13-18----------------
G|--------10b12r10-8--------------------------------------------------------------
D|--8-----------------------------------------------------------------------------
A|--------------------------------------------------------------------------------
E|--------------------------------------------------------------------------------

2nd Part
E|--18-16-15h16p15----15----------------------------
B|-----------------18----18-16-15h16p15----15-------
G|--------------------------------------17----17-15-
D|--------------------------------------------------
A|--------------------------------------------------
E|--------------------------------------------------

3rd Part
E|-----------------15-16-18----------------15-16-18-18b20-
B|--------15-16-18----------------15-16-18----------------
G|--15-17-------------------15-17-------------------------
D|--------------------------------------------------------
A|--------------------------------------------------------
E|--------------------------------------------------------

4th Part
E|--------------------------------
B|--15-16-13-15-16-13-15-16b18----
G|--------------------------------
D|--------------------------------
A|--------------------------------
E|--------------------------------

5th Part
E|-----------13-------------------------------
B|-----------------14-14-14-14----------------
G|--10-12-13----13-------------6---6h-7p6-----
D|-----------------------------------------7--
A|--------------------------------------------
E|--------------------------------------------

2nd Solo

1st Part
E|-----------------------------------------
B|--------8--11----------11-------8--11b13-
G|-----8-----------7--10-------8-----------
D|--8-----------8-----------10-------------
A|-----------------------------------------
E|-----------------------------------------

2nd Part
E|--------------------------------
B|--------------------8---8h9--8--
G|--7--8--7---8h10-8--------------
D|--------------------------------
A|--------------------------------
E|--------------------------------

3rd Part
E|--10/15-14-15-17-17b18-------------
B|-----------------------13-13/15\11-
G|-----------------------------------
D|-----------------------------------
A|-----------------------------------
E|-----------------------------------


tabs and chords, guitar tabs, music transcription, music technology, deep learning, music information retrieval, transcribe into tabs & chords, chordify, music renditions, songsterr, reverbnation, tabulature, bollywood chords, ultimate guitar, yousician, guitar lessons, acoustic guitar, electric guitar, guitar tuner, 911 tabs