Guitar Tabs for Bohemian Rhapsody By Queen (solo)

(/) Slide Up  (\) Slide Down  (h) Hammer On  (p) Pull Off  (b) Bend (r) Release (v) Vibrato (x) Muted

Bohemian Rhapsody by Queen (Solo)
E|--------------------------------------------------------------
B|--------------11----8--11b13----13----15-16-13----15-16-16b18-
G|-----10b12-8--------------------------------------------------
D|--8-----------------------------------------------------------
A|--------------------------------------------------------------
E|--------------------------------------------------------------

E|--16-15-16-15h16p15----15-------------------------------------
B|--------------------18----18-16-15-16-15h16p15----15----------
G|-----------------------------------------------17----17-15----
D|--------------------------------------------------------------
A|--------------------------------------------------------------
E|--------------------------------------------------------------

E|--------------------15-16-18-------------------15-16-18-18b20-
B|-----------15-16-18-------------------15-16-18----------------
G|--15----17----------------------15-17-------------------------
D|--------------------------------------------------------------
A|--------------------------------------------------------------
E|--------------------------------------------------------------

E|--------------------------------------------------------------
B|-----15-16----13----15-16----13----15-16-16b18----------------
G|--------------------------------------------------------------
D|--------------------------------------------------------------
A|--------------------------------------------------------------
E|--------------------------------------------------------------

E|--------------13----------------------------------------------
B|--------------------14-14-14----------------------------------
G|-----10-12-13----13----------6---7p6--------------------------
D|---------------------------------------9p7--------------------
A|--------------------------------------------------------------
E|--------------------------------------------------------------

tabs and chords, guitar tabs, music transcription, music technology, deep learning, music information retrieval, transcribe into tabs & chords, chordify, music renditions, songsterr, reverbnation, tabulature, bollywood chords, ultimate guitar, yousician, guitar lessons, acoustic guitar, electric guitar, guitar tuner, 911 tabs