Guitar Tabs for Bohemian Rhapsody

(/) Slide Up  (\) Slide Down  (h) Hammer On  (p) Pull Off  (b) Bend (r) Release (v) Vibrato (x) Muted

Tabs for Song : 
BPM : 200
CAPO 3

   
E|--------2-----2--------1-----------------------------2-----------------3-----2--
B|--0--2--1--1--1--0--0--0--------1-----------1-----1--1--0--1--0--1--1--0--2--1--
G|--0--0-----2-----0--0--------0-----0-----0-----0--2-----0--2--0--2--0-----0-----
D|--------0-----0--------------------------------------0-----3-----3-----------0--
A|-----0-----0--------------3-----------2-----------0-----------------3--2--1-----
E|--0--------------3--0--3--------------------------------3-----3-----------------


E|--------------0-----------------0-----------------------------------------------------------------
B|--0--------0-----3--0--------0-----3--0--0--------0--0--0--0--1--3--1--0--------0--1--3--1--0-----
G|--------0-----------------0-----------------0--2--------------------------2--2-----------------2--
D|-----0-----------------0-----------------------------------------------------------------------0--
A|--------------------------------------------------------------0--------------------0--------------
E|--3-----------------3-----------------3--------0--------------------------------------------------

E|--------------2--0--0--0--3--0--0--------------------0--0-----0--1--0--0--0--0--1--3--1--0-----------
B|--0--0--0--3-----------------------1--0--1--0--0-----------3--------------------3-----------3--------
G|--------------------------------------------------2-----------------------------2-----------0--0--0--
D|--------------------------------------------------0--------------------------------------------------
A|--------------------------0--------------------------3--------------0--------------------------------
E|--3-----------0--------------------------------------------3-----------------------------------------

E|--------0--0--1--1--1--1--3--1--0-----0--3-----0-----------------------------------------0--------
B|--3--3-----------------------------3--------3-----1--------------------------0--------0-----3--0--
G|-----------------------------------------------------0--0--1--3--1--3--1--0--------0--------------
D|-----------------------------------------2--------------------------------------0-----------------
A|--------------------------------3-----------------0-----------------------------------------------
E|-----------------------------------------------------------------------------3-----------------3--

E|-----------0--------------------------------------------------------------------------------------
B|--------0-----3--0--0--------0--0--0--0--1--3--1--0--------0--1--3--1--0-----0--0-----------0--3--
G|-----0-----------------0--2--------------------------2--2-----------------2--------2--0--2--------
D|--0-----------------------------------------------------------------------0-----------------------
A|-----------------------------------------0--------------------0-----------------------------------
E|-----------------3--------0--------------------------------------------------3-----------0--------

E|--2--0--0--0--3--3--3--0-----------------0--0-----0--1--0--0--0--0--1--3--1--0-----------------0--0--
B|--------------------------1--3--1--0-----------3--------------------3-----------3--------3--3--------
G|--------------------------------------2-----------------------------2-----------0--0--0--------------
D|--------------0-----------------------0--------------------------------------------------------------
A|--0--------------------------------------3--------------0--------------------------------------------
E|-----------------------------------------------3-----------------------------------------------------

E|--1--1--1--1--3--1--0-----0--3-----0--------------------------------
B|-----------------------3--------3-----1--------------------------0--
G|-----------------------------------------0--0--1--3--1--3--1--0-----
D|-----------------------------2--------------------------------------
A|--------------------3-----------------0-----------------------------
E|-----------------------------------------------------------------3--

Song lyrics here 
E|--
B|--
G|--
D|--
A|--
E|--

Use manual mode to free up cursor. Paste any tab in acousterr tab maker and we'll play it !!!
tabs and chords, guitar tabs, music transcription, music technology, deep learning, music information retrieval, transcribe into tabs & chords, chordify, music renditions, songsterr, reverbnation, tabulature, bollywood chords, ultimate guitar, yousician, guitar lessons, acoustic guitar, electric guitar, guitar tuner, 911 tabs