Ukulele Tabs for Pubg Theme

A|--------7-----8-----10----------7-----8-----10----------7-----8-----10----------7-----8-----
E|-----0-----0-----0-----0-----0-----0-----0-----0-----0-----0-----0-----0-----0-----0-----0--
C|--9-----------------------9-----------------------9-----------------------9-----------------
G|--------------------------------------------------------------------------------------------


A|--------0-----------0--------0--------0--------0--7--
E|--------1-----1--------1--------1--------1-----------
C|--------0--------0--------0--------0--------0--------
G|--0-----2--------------------------------------------


A|-----5-----------5--------5--------5--------3--2-----
E|-----3-----3--------3--------3--------3--------------
C|-----2--------2--------2--------2--------2-----------
G|-----0-----------------------------------------------


A|--3-----------3--------3--------3--------0--3--
E|--0-----0--------0--------0--------0-----------
C|--0--------0--------0--------0--------0--------
G|--2--------------------------------------------


A|--2-----------2--------2--------2--------3--2--
E|--3-----3--------3--------3--------3-----------
C|--2--------2--------2--------2--------2--------
G|--0--------------------------------------------


A|-----0-----------0--------0--------0--------0--7--
E|-----1-----1--------1--------1--------1-----------
C|-----0--------0--------0--------0--------0--------
G|-----2--------------------------------------------

A|-----5-----------5--------5--------5--------3--2-----0--
E|-----3-----3--------3--------3--------3--------------0--
C|-----2--------2--------2--------2--------2-----------0--
G|-----0-----------------------------------------------2--


A|-----------7-----8-----10----------7-----8-----10----------7-----8-----10----
E|--------0-----0-----0-----0-----0-----0-----0-----0-----0-----0-----0--------
C|-----9-----------------------9-----------------------9-----------------------
G|-----------------------------------------------------------------------------
tabs and chords, guitar tabs, music transcription, music technology, deep learning, music information retrieval, transcribe into tabs & chords, chordify, music renditions, songsterr, reverbnation, tabulature, bollywood chords, ultimate guitar, yousician, guitar lessons, acoustic guitar, electric guitar, guitar tuner, 911 tabs