Guitar Tabs for Pubg Theme

(intro)
E|--------0-----1-----3-----------0-----1-----3-----------0-----1-----3-----------0-----1-----3-----
B|--------------------------------------------------------------------------------------------------
G|--------------------------------------------------------------------------------------------------
D|-----2-----2-----2-----2-----2-----2-----2-----2-----2-----2-----2-----2-----2-----2-----2-----2--
A|--0-----------------------0-----------------------0-----------------------0-----------------------
E|--------------------------------------------------------------------------------------------------


(main theme)
E|-----------------------------------------------------------------------------------
B|-----------------------5--3--------1-----0--1--------------1--0-----1-----0--------
G|--0-----2--------2-----------------------------------2-----------------------2-----
D|-----------------------------------------------------------------------------------
A|-----------------------------------------------------------------------------------
E|-----------------------------------------------------------------------------------

E|--------------------------------------
B|--------5--3--------1-----0-----------
G|--2--------------------------2--------
D|--------------------------------------
A|--------------------------------------
E|--------------------------------------

E|--------------------------------------------------------------------------------------
B|-----------------------5--3--------1-----0--1--------------1--0--------1-----0--------
G|--0-----2--------2-----------------------------------2--------------------------2-----
D|--------------------------------------------------------------------------------------
A|--------------------------------------------------------------------------------------
E|--------------------------------------------------------------------------------------


(fillers)
E|--------------------------------------------------
B|--------------------------------------------------
G|--5--4--------5--4--------5--4--------5--4--------
D|--------7--5--------7--5--------7--5--------7--5--
A|--------------------------------------------------
E|--------------------------------------------------

E|--------------------------------------------------
B|--------------------------------------5-----------
G|--7--5--4-----7--5--4-----7--5--4--------7--5--4--
D|-----------7-----------7-----------7--------------
A|--------------------------------------------------
E|--------------------------------------------------

E|-----------5-----------5-----------5-----------5--
B|--------5-----------5-----------5-----------5-----
G|--7--5--------7--5--------7--5--------7--5--------
D|--------------------------------------------------
A|--------------------------------------------------
E|--------------------------------------------------

E|-----------3-----------3-----------3-----------------------
B|--------3-----------3-----------3--------------------------
G|--5--4--------5--4--------5--4--------5--4-----------------
D|--------------------------------------------7--5---5/7-----
A|-----------------------------------------------------------
E|-----------------------------------------------------------


tabs and chords, guitar tabs, music transcription, music technology, deep learning, music information retrieval, transcribe into tabs & chords, chordify, music renditions, songsterr, reverbnation, tabulature, bollywood chords, ultimate guitar, yousician, guitar lessons, acoustic guitar, electric guitar, guitar tuner, 911 tabs