Guitar Tabs for Pos

(/) Slide Up  (\) Slide Down  (h) Hammer On  (p) Pull Off  (b) Bend (r) Release (v) Vibrato (x) Muted

Tabs for Song : POS
BPM : 200

INTRO (everyone starts same time)
E|--12-12-12-12-12-12-12-12-12-12-12-12-12-12-12-12-12-12-12-12-12-12-12-12-12-12-12-12-12-12-12-12-
B|--12-12-12-12-12-12-12-12-13-13-13-13-13-13-13-13-13-13-13-13-13-13-13-13-13-13-13-13-13-13-13-13-
G|--12-12-12-12-12-12-12-12-12-12-12-12-12-12-12-12-12-12-12-12-12-12-12-12-12-12-12-12-12-12-12-12-
D|--12-12-12-12-12-12-12-12-14-14-14-14-14-14-14-14-14-14-14-14-14-14-14-14-14-14-14-14-14-14-14-14-
A|--10-10-10-10-10-10-10-10-12-12-12-12-12-12-12-12-12-12-12-12-12-12-12-12-12-12-12-12-12-12-12-12-
E|-------------------------------------------------------------------------------------------------

E|--12-12-12-12-12-12-12-12---
B|--12-12-12-12-12-12-12-12---
G|--12-12-12-12-12-12-12-12---
D|--12-12-12-12-12-12-12-12---
A|--12-12-12-12-12-12-12-12---
E|--10-10-10-10-10-10-10-10---


CHORUS/ MAIN LICK (POG activate)
E|-----------------------------------------------------------------------------------------------
B|-----------------------------------------------------------------------------------------------
G|----------12-16-------------------12-14-------------------12-14----------------16-14-12--------
D|--------12-14-------------------12-14-------------------12-14-----------------------14---------         
A|-----------------------------------------------------------------------------------------------
E|-----------------------------------------------------------------------------------------------


VERSE1
IMPROVISED FOR 32 BARS (until singing) (we'll teach you the verse in person, its impossible to tab yeet)

                Don't leave me   behind                         I'll see you when you're there
E|--------------------------------------------------------------------------------------------------
B|--------------------------------------------------------------------------------------------------
G|--------------------------------------------------------------------------------------------------     x2    
D|--------------------------------------------------------------------------------------------------
A|-10--10-10-10-10-10-12-10-12/14-12-12-12-12-12-10-12/14-12-12-12-12/14-14-10--10-10-10-10-10-10-10
E|--------------------------------------------------------------------------------------------------

Down souths where you'll find
You'll be testing all your care



PRE CHORUS
         Falling down baby,                         In nothing else     but you
E|--14----------------------12----------------------7-----------------------7--7--7--7--7--
B|--15----------------------13----------------------8-----------------------7--7--7--7--7--
G|--14----------------------12----------------------7-----------------------7--7--7--7--7--
D|--16----------------------14----------------------9-----------------------7--7--7--7--7--
A|--14----------------------12----------------------7-----------------------5--5--5--5--5--
E|-----------------------------------------------------------------------------------------



CHORUS/ MAIN LICK (POG activate)
   ooooooooooooooooh
E|-----------------------------------------------------------------------------------------------
B|-----------------------------------------------------------------------------------------------
G|----------12-16-------------------12-14-------------------12-14----------------16-14-12--------
D|--------12-14-------------------12-14-------------------12-14-----------------------14---------         x2        
A|-----------------------------------------------------------------------------------------------
E|-----------------------------------------------------------------------------------------------


VERSE2
IMPROVISED FOR 32 BARS (until singing) (we'll teach you the verse in person, its impossible to tab yeet)

A long 4 years.
You tell me you wont go,
You'll find your place
Under the snow



PRE CHORUS
Dont worry baby, about me at all



CHORUS/ MAIN LICK (POG activate)
   ooooooooooooooooh
E|-----------------------------------------------------------------------------------------------
B|-----------------------------------------------------------------------------------------------
G|----------12-16-------------------12-14-------------------12-14----------------16-14-12--------
D|--------12-14-------------------12-14-------------------12-14-----------------------14---------         x2        
A|-----------------------------------------------------------------------------------------------
E|-----------------------------------------------------------------------------------------------


BRIDGE (flick delay on and do whammy bends, mostly improvised, build up to the end)
E|--10----------------------12----------------------12----------------------10----------------------
B|--12----------------------13----------------------13----------------------12----------------------
G|--11----------------------12----------------------12----------------------11----------------------     x3
D|--12----------------------14----------------------14----------------------12----------------------
A|--10----------------------12----------------------12----------------------10----------------------
E|--------------------------------------------------------------------------------------------------

you've gone way down,
we'll still stick around



CHORUS/ MAIN LICK (POG activate)
   ooooooooooooooooh
E|-----------------------------------------------------------------------------------------------
B|-----------------------------------------------------------------------------------------------
G|----------12-16-------------------12-14-------------------12-14----------------16-14-12--------
D|--------12-14-------------------12-14-------------------12-14-----------------------14---------         x2        
A|-----------------------------------------------------------------------------------------------
E|-----------------------------------------------------------------------------------------------
tabs and chords, guitar tabs, music transcription, music technology, deep learning, music information retrieval, transcribe into tabs & chords, chordify, music renditions, songsterr, reverbnation, tabulature, bollywood chords, ultimate guitar, yousician, guitar lessons, acoustic guitar, electric guitar, guitar tuner, 911 tabs