Guitar Tabs for Such Grace

(/) Slide Up  (\) Slide Down  (h) Hammer On  (p) Pull Off  (b) Bend (r) Release (v) Vibrato (x) Muted

Tabs for Song : SUch grace
BPM : 200

INTRO RIFF
E|--12-12-------------------
B|--14-14-14-14-12-12-14-14-
G|--13-13-14-14-12-12-14-14-
D|--12-12-14-14-12-12-14-14-      x4
A|--14-14-12-12-10-10-12-12-
E|--12-12-------------------


PRE VERSE (strumming)
    E                       Aadd9                  C#m                      A
E|--12----------------------5-----------------------9-----------------------5-----------------------
B|--12----------------------7-----------------------9-----------------------5-----------------------
G|--13----------------------6-----------------------9-----------------------6-----------------------
D|--14----------------------7-----------------------11----------------------7-----------------------
A|--14----------------------7-----------------------11----------------------7-----------------------
E|--12----------------------5-----------------------9-----------------------5-----------------------


VERSE (Finger Picking)(same chords in higher octave)
E|--12----------------------12----------------------9-----------------------12----
B|--12----------------------14----------------------9-----------------------14----
G|--13----------------------14----------------------9-----------------------14----
D|--14----------------------14----------------------11----------------------14----
A|--14----------------------12----------------------11----------------------12----
E|--0-----------------------------------------------9-----------------------------

Can you hold up, 
How do you grow up?
Whispering a tune
Aiming harpoons

INTRO RIFF 
E|--12-12-------------------
B|--14-14-14-14-12-12-14-14-
G|--13-13-14-14-12-12-14-14-
D|--12-12-14-14-12-12-14-14-      x2
A|--14-14-12-12-10-10-12-12-
E|--12-12-------------------


CHORUS (heavy strumming)
               Yellow boys go-  ing                 for     a               ride
    E                     Aadd9                   Cmin7                    Aadd9
E|--0-----------------------0-----------------------9-----------------------0--
B|--12----------------------0-----------------------9-----------------------0--
G|--13----------------------6-----------------------9-----------------------6--
D|--14----------------------7-----------------------9-----------------------7--    x2
A|--14----------------------7-----------------------11----------------------7--
E|--0-----------------------5-----------------------9-----------------------5--

Such grace of my life lets waste some time

INTRO RIFF x2

PRE VERSE 

VERSE 

So watcha gonna do?
She's older tha you
I'll tame your sothern prid
I'm sorry magic died

INTRO RIFF x2

CHORUS2

BRIDGE (switch on pog)
E|--/14-14-14-14-14-14-14-14-7--7--7--7--7--7--7--7--9--9--9--9--9--9--9--9--9--9--9--9--9--9--9--9----
B|-----------------------------------------------------------------------------------------------------
G|-----------------------------------------------------------------------------------------------------  x2
D|-----------------------------------------------------------------------------------------------------
A|-----------------------------------------------------------------------------------------------------
E|-----------------------------------------------------------------------------------------------------

I've walkd my whole life to lose my mind
I know we should be busy, lets waste some time


OUTRO (strumming OR improvised solo with pog)
                oooo's
    E                     Aadd9                   Badd9                   Aadd9
E|--0-----------------------0-----------------------0-----------------------0-----------------------
B|--12----------------------0-----------------------0-----------------------0-----------------------
G|--13----------------------6-----------------------8-----------------------6-----------------------
D|--14----------------------7-----------------------9-----------------------7-----------------------  x2
A|--14----------------------7-----------------------9-----------------------7-----------------------
E|--0-----------------------5-----------------------7-----------------------5-----------------------













Use manual mode to free up cursor. Paste any tab in acousterr tab maker and we'll play it !!!
tabs and chords, guitar tabs, music transcription, music technology, deep learning, music information retrieval, transcribe into tabs & chords, chordify, music renditions, songsterr, reverbnation, tabulature, bollywood chords, ultimate guitar, yousician, guitar lessons, acoustic guitar, electric guitar, guitar tuner, 911 tabs