Guitar Tabs for Red Blend

(/) Slide Up  (\) Slide Down  (h) Hammer On  (p) Pull Off  (b) Bend (r) Release (v) Vibrato (x) Muted

Tabs for Song : RED BLEND
BPM : 200

INTRO
E|-0-0-0-0-0-0-0-0-0-0-0-0-0-0-0-0-0-0-0-0-0-0-0-0-0
B|-0-0-0-0-0-0-0-0-0-0-0-0-0-0-0-0-0-0-0-0-0-0-0-0-0-
G|-6-6-6-6-6-6-6-6-6-6-6-6-6-6-6-6-6-6-6-6-6-6-6-6-6-    x4
D|-7-7-7-7-7-7-7-7-7-7-7-7-7-7-7-7-7-7-7-7-7-7-7-7-7-
A|-7-7-7-7-7-7-7-7-7-7-7-7-7-7-7-7-7-7-7-7-7-7-7-7-7-
E|-5-5-5-5-5-5-5-5-5-5-5-5-5-5-5-5-5-5-5-5-5-5-5-5-5-


VERSE1  
                             Oh what kind of tea to  da-ay      
         not accurate ~~ finger pick (Dadd9)                               Aadd9
E|-----------0-----------------0-----------------0--0-0-0-0-0-0-0-0-0-0-0-0-0-0-0-0-0-0-0-0-0-0-0-0-
B|--------10----10----------10----10----------10----0-0-0-0-0-0-0-0-0-0-0-0-0-0-0-0-0-0-0-0-0-0-0-0-
G|-----11----------11----11----------11----11-------6-6-6-6-6-6-6-6-6-6-6-6-6-6-6-6-6-6-6-6-6-6-6-6-
D|--12----------------12----------------12----------7-7-7-7-7-7-7-7-7-7-7-7-7-7-7-7-7-7-7-7-7-7-7-7-        x4
A|--------------------------------------------------7-7-7-7-7-7-7-7-7-7-7-7-7-7-7-7-7-7-7-7-7-7-7-7-
E|--------------------------------------------------5-5-5-5-5-5-5-5-5-5-5-5-5-5-5-5-5-5-5-5-5-5-5-5-

Drink it til she looks my way
Can I go with you?
Now that we are through?



PRECHORUS  (delay on, long strums)
              
              I dont need to hide                           And I feel like I don't reall wanna
E|--2------------------------0----------------------2-----------------------7-----------------------
B|--2------------------------0----------------------2-----------------------7-----------------------
G|--2------------------------6----------------------2-----------------------7-----------------------
D|--2------------------------7----------------------2-----------------------7-----------------------
A|--4------------------------7----------------------4-----------------------5-----------------------
E|--2------------------------5----------------------2-----------------------------------------------



CHORUS1 (pog activate, strum pattern accurate.. make your own with notes provided)                 
                             I cant help it
E|---0-0-0-0-0-0--0-0-0-0-0-0--0--0--0--0--0--0--0-----------
B|---0-0-0-0-0-0--0-0-0-0-0-0--0--0--0--0--0--0--0-----------
G|--/6-6-6-6-6-6--4-4-4-4-4/11-11-11-11-11-11-11-11----------             x3
D|-----------------------------------------------------------
A|-----------------------------------------------------------
E|-----------------------------------------------------------

You're just way too fun
I Cant help i-it

              (last four bars of verse, notice chord change)
E|---0-0-0-0-0-0--0-0-0-0-0-11-11-11-11-11-11-11-11-----------
B|---0-0-0-0-0-0--0-0-0-0-0-11-11-11-11-11-11-11-11-----------
G|--/6-6-6-6-6-6--4-4-4-4-4/11-11-11-11-11-11-11-11----------             
D|-----------------------------------------------------------
A|-----------------------------------------------------------   
E|-----------------------------------------------------------          

THEN STOP FOR 16 BARS!  come in on strumming with ADAM    

Aadd9     D6  x2



VERSE2 (back to finger picking same as verse 1) 
Touching knees makes me excited
Got a secret need to hide it
Can I go with you?
Now that we are through


PRECHORUS2
I dont need to hide,
And I think that I dont really wanna


CHORUS2
I can't help it
You;re just way too fun
I cant help i-it


OUTRO   ~    SAME AS INTRO
ooooooooh





tabs and chords, guitar tabs, music transcription, music technology, deep learning, music information retrieval, transcribe into tabs & chords, chordify, music renditions, songsterr, reverbnation, tabulature, bollywood chords, ultimate guitar, yousician, guitar lessons, acoustic guitar, electric guitar, guitar tuner, 911 tabs