Guitar Tabs for Popo Loko

(/) Slide Up  (\) Slide Down  (h) Hammer On  (p) Pull Off  (b) Bend (r) Release (v) Vibrato

Tabs for Song : 

Song lyrics here
E|--------------------------------------------------------------------
B|--------------------------------------------------------------------
G|--7-----7--4--5--7-----7--7-----7--4-----4--5--4--------------------
D|--7-----7--4--5--7-----7--7-----7--4-----4--5--4--7-----7---5/-7\5--
A|--5-----5--2--3--5-----5--5-----5--2-----2--3--2--5-----5---5/-7\5--
E|--------------------------------------------------5-----5---3/-5\3--

Song lyrics here
E|--------------------------------------------------------------------
B|--------------------------------------------------------------------
G|--7-----7--4--5--7-----7--7-----7--4-----4--5--4--------------------
D|--7-----7--4--5--7-----7--7-----7--4-----4--5--4--7-----7---5/-7\5--
A|--5-----5--2--3--5-----5--5-----5--2-----2--3--2--5-----5---5/-7\5--
E|--------------------------------------------------5-----5---3/-5\3--


Now supports capo and sound effects for vibrato/pull-off/hammer/bends etc !!! Checkout help section
E|--------------------------------------------------------------------
B|--------------------------------------------------------------------
G|--7-----7--4--5--7-----7--7-----7--4-----4--5--4--------------------
D|--7-----7--4--5--7-----7--7-----7--4-----4--5--4--7-----7---5/-7\5--
A|--5-----5--2--3--5-----5--5-----5--2-----2--3--2--5-----5---5/-7\5--
E|--------------------------------------------------5-----5---3/-5\3--

E|--------------------------------------------------------------------
B|--------------------------------------------------------------------
G|--7-----7--4--5--7-----7--7-----7--4-----4--5--4--------------------
D|--7-----7--4--5--7-----7--7-----7--4-----4--5--4--7-----7---5/-7\5--
A|--5-----5--2--3--5-----5--5-----5--2-----2--3--2--5-----5---5/-7\5--
E|--------------------------------------------------5-----5---3/-5\3--


E|--------------------------------------------------------------------------------------------------------
B|--------------------------------------------------------------------------------------------------------
G|--------5-----5--5--5--5--5-----5--5--5--5--5--5-----5-----3--3--3--3--3-----5--3--3--3--3--3-----5-----
D|-----3-----3--3--3--3--3--3--3-----3--3--3--3--3--3-----3--3--3--3--3--3--3-----3--3--3--3--3--3-----3--
A|--------------------------------------------------------------------------------------------------------
E|--------------------------------------------------------------------------------------------------------

E|-----------------------------------------------
B|-----------------------------------------------
G|--5--5--5--5--5-----5--5--5--5--5--5-----5-----
D|--5--5--5--5--5--3-----5--5--5--5--5--3-----3--
A|-----------------------------------------------
E|-----------------------------------------------

E|--------------------
B|--------------------
G|--5--5--5--5--5-----
D|--3--3--3--3--3--3--
A|--------------------
E|--------------------


tabs and chords, guitar tabs, music transcription, music technology, deep learning, music information retrieval, transcribe into tabs & chords, chordify, music renditions, songsterr, reverbnation, tabulature, bollywood chords, ultimate guitar, yousician, guitar lessons, acoustic guitar, electric guitar, guitar tuner, 911 tabs