Bass Tabs for Polly Vaughn

(/) Slide Up  (\) Slide Down  (h) Hammer On  (p) Pull Off  (b) Bend (r) Release (v) Vibrato (x) Muted

Tabs for Song : 
BPM : 200

  Now come all ye hunters who follow the gun

G|-------------------------------------------------
D|--------------------------------------------------
A|--------7-----------7-----------7--------5--------
E|--5-----------5-----------5-----------5-----5-----


  Beware of your shooting at the setting of the sun

G|-----------------------------------------------------
D|-----------------------------------------------------
A|--------7-----------7-----------7-----5--------5-----
E|--5-----------5-----------5-----------------5-----5--

   For Polly's own true love he shot in the dark

G|-----------------------------------------------
D|--------------------------------7-----------------
A|--------7-----------7-----5-----------5-----5-----
E|--5-----------5--------------------------5--------

  But oh and alas Polly Vaughn was his mark.

G|--------------------------------------------
D|--------------------------------------------
A|--------5-----------5-----------7--5--------
E|--5-----------5-----------5-----------5-----

----------------------------------------------------------------

   For she'd her apron wrapped about her and he took her for a swan

G|-----------------------------------------------------------
D|--------------------------------------------------------------
A|--------------------------------------------------------------
E|--------------5--------------5--------5-----5-----5-----5-----

   Oh and alas it was she Polly Vaughn

G|--------------------------------------
D|--------------------------------------
A|-----7-----5--------7--------5--------
E|--5-----5--------5--------5-----5-----



   He ran up beside her   and saw that it was she

G|--------------------------------------------------
D|--------------------------------------------------
A|--------7-----------7-----------7--------5--------
E|--5-----------5-----------5-----------5-----5-----

  Cried "Polly oh Polly have I killed thee"

G|--------------------------------------------------
D|--------------------------------------------------
A|--------7-----------7-----------5-----------5-----
E|--5-----------5-----------5-----------5-----------

   He lifted up her head and saw that she was dead

G|--------------------------------------------------
D|--------------------------------------------------
A|--------7-----------7-----------5-----------7-----
E|--5-----------5-----------5-----------5-----------

  And a fountain of tears for his true love he shed.

G|------------------------------------------------
D|--------------------------------------------------
A|--------5--------------7-----------5--------7-----
E|--5--------5-----5-----------5--------5-----------




   In the middle of the night Polly Vaughn did appear


G|--------------------------------------------------------
D|--------------------------------------------------------
A|--------7-----------7-----------7-----5-----------5-----
E|--5-----------5-----------5-----------------5-----------


  Cried "Jimmy oh Jimmy you must have no fear;

G|--------------------------------------------
D|--------------------------------------------
A|--------7-----------7-----5-----------5-----
E|--5-----------5-----------------5--------5--

  Just tell them you were hunting when your trial day has come

G|--------------------------------------------------------------------------
D|--------------------------------------------------------------------------
A|--------7-----------5-----------7-----5-----------------5-----------7-----
E|--5-----------3-----------5-----------------5-----3-----------5-----------

And you won't be convicted for what you have done."

G|-----------------------------------------------
D|-----------------------------------------------
A|--------7-----5--------------5-----------7-----
E|--5--------------5-----5-----------5-----------




   In the middle of the trial Polly Vaughn did appear

G|--------------------------------------------------------
D|--------------------------------------------------------
A|--------7-----------7-----------7-----5-----------5-----
E|--5--------5--5-----------5-----------------5-----------

  Crying "Uncle oh Uncle Jimmy Randall must go clear"

G|--------------------------------------------------
D|--------------------------------------------------
A|--------7-----------7-----------7-----------7-----
E|--5-----------5-----------5-----------5-----------

   The lawyers and the judges stood around in a row

G|--------------------------------------------------
D|--------------------------5-----------------------
A|--5-----------5-----------------5-----------7-----
E|--------5-----------5-----------------5-----------

   In the middle Polly Vaughn like some fountian of snow

G|--------------------------------------------------------------
D|--------------5-----------------------------------------------
A|--------7-----------5-----------5-----------7-----------7-----
E|--5-----------------------5-----------5-----------5-----------




   For she'd her apron wrapped about her and they took her for a swan

G|--------------------------------------------------------------------
D|-----------------------------------------------------------------------
A|-----------------------------------------------------------------7-----
E|--------------5--------------5-----------5-----5-----5-----5-----------

Oh and alas it was she Polly Vaughn

G|--------------------------------------
D|--------------------------------------
A|--------7-----------5-----------7-----
E|--5-----------5--------5-----5--------

Oh and alas it was she Polly Vaughn

G|--------------------------------------
D|--------------------------------------
A|--------7-----------5-----------7-----
E|--5-----------5--------5-----5--------
tabs and chords, guitar tabs, music transcription, music technology, deep learning, music information retrieval, transcribe into tabs & chords, chordify, music renditions, songsterr, reverbnation, tabulature, bollywood chords, ultimate guitar, yousician, guitar lessons, acoustic guitar, electric guitar, guitar tuner, 911 tabs