Guitar Tabs for Pink Floyd - In The Flesh?

Pink Floyd - In The Flesh?

Intro

E|-----------------------------------------------------0--
B|--------------------------------------8-----3--------0--
G|--------------------------------------7-----2-----------
D|--------------------------------------------------------
A|-----------------------0-----2--3-----------------------
E|--0--0-----2-----3--------------------------------------

E|-----------0--------------0-----------------------------------------
B|--------0-----3--------0-----3--------------------------------------
G|---2b3------------2b3------------2b4--2--0--------------------------
D|--------------------------------------------2--0-----------------2--
A|--------------------------------------------------2--1--0-----------
E|------------------------------------------------------------3p0-----

E|--------------------------------------------------------------------
B|--3--------5--------6--------5--------3--------5--------6--------8--
G|--2--------4--------5--------4--------2--------4--------5--------7--
D|--0--------0--------0--------0--------0--------0--------0--------0--
A|--------------------------------------------------------------------
E|--------------------------------------------------------------------

E|-----------------------------------------------------------
B|-----------------------------------------------------------
G|-----------------------------------------------------------  2x
D|----------------------------------------------------------- 
A|--0------2b4-----2-----0---------------4b5-----4-----2-----
E|-----------------------------4--2--------------------------

E|-----------------------------------------------------------
B|-----------------------------------------------------------
G|-----------------------------------------------------------
D|-----------------------------------------------------------
A|--0------2b4-----2-----0-----1--2---4b5-----4-----2-----3--
E|-----------------------------------------------------------

E|-----------------------------------------------
B|-----------------------------------------------
G|-----------------------------------------------
D|--------------------------2-----2-----2-----2--
A|--4---5b7-----5-----4-----2-----2-----2-----2--
E|--------------------------0-----0-----0-----0--

Verse

 (A)                               (D)
So ya, thought ya might like to go to the show

 (A)                                        (D)
To feel that warm thrill of confusion, that space cadet glow

(A) 
Tell me is something eluding you sunshine

 (Bm)
Is this not what you expected to see?

(C#m)
If you wanna find out what's behind this cold eyes

 (E)
You'll just have to claw your way through this disguise

Outro

E|-----------------------------------------------------------
B|-----------------------------------------------------------
G|-----------------------------------------------------------  2x
D|----------------------------------------------------------- 
A|--0------2b4-----2-----0---------------4b5-----4-----2-----
E|-----------------------------4--2--------------------------

E|-----------------------------------------------------------
B|-----------------------------------------------------------
G|-----------------------------------------------------------
D|-----------------------------------------------------------
A|--0------2b4-----2-----0-----1--2---4b5-----4-----2-----3--
E|-----------------------------------------------------------

E|--------------------------------------------------0--
B|--------------------------------------------------2--
G|--------------------------------------------------2--
D|--------------------------2-----2-----2-----2-----2--
A|--4---5b7-----5-----4-----2-----2-----2-----2-----0--
E|--------------------------0-----0-----0-----0--------

----------------------------------------------------------------------------------------------------
Chords

    A     D     Bm   C#m    E
E|--0-----2-----2-----4-----0--
B|--2-----3-----3-----5-----0--
G|--2-----2-----4-----6-----1--
D|--2-----0-----4-----6-----2--
A|--0-----------2-----4-----2--
E|--------------------------0--
tabs and chords, guitar tabs, music transcription, music technology, deep learning, music information retrieval, transcribe into tabs & chords, chordify, music renditions, songsterr, reverbnation, tabulature, bollywood chords, ultimate guitar, yousician, guitar lessons, acoustic guitar, electric guitar, guitar tuner, 911 tabs